Song name
# A B C D E F G H I J K L M N O P Q R S T U V W X Y Z

Avicii - Levels tab

This is my first tab, and I figured that there is no better way to contribute than with 
Avicii's Levels.

Avicii's Levels:

e[--10-8---------------------------------]
b[-------10-8-6-6--6-6-6-6-5-5-6-6-------]
g[---------------------------------------]
D[---------------------------------------]
A[---------------------------------------]
E[---------------------------------------]

e[--10-8---------------------------------]
b[-------10-8-6-6--6-6-6-6-3-3-1-1-------]
g[---------------------------------------]
D[---------------------------------------]
A[---------------------------------------]
E[---------------------------------------]
Tap to rate this tab
# A B C D E F G H I J K L M N O P Q R S T U V W X Y Z