Song name
# A B C D E F G H I J K L M N O P Q R S T U V W X Y Z

Avicii - Levels chords

Highlighted       Show chord diagrams
Intro:

      Em          G            D
e|---0-0--------3-3-3--------2-2-2--------0-0-0------------------------------|
B|---0-0--------0-0-0--------3-3-3--------3-3-3------------------------------|
G|---0-0--------0-0-0--------2-2-2--------0-0-0------------------------------|
D|---2-2--------0-0-0--------0-0-0--------2-2-2------------------------------|
A|---2-2--------2-2-2--------0-0-0--------0-0-0------------------------------|
E|---0-0--------3-3-3--------0-0-0--------0-0-0------------------------------|

Just play this through the whole song:
Strumming pattern: Down, up, down.

      Em          G            D
e|---0-0-0-------3-3-3--------2-2-2--------0-0-0------------------------------|
B|---0-0-0-------0-0-0--------3-3-3--------3-3-3------------------------------|
G|---0-0-0-------0-0-0--------2-2-2--------0-0-0------------------------------|
D|---2-2-2-------0-0-0--------0-0-0--------2-2-2------------------------------|
A|---2-2-2-------2-2-2--------0-0-0--------0-0-0------------------------------|
E|---0-0-0-------3-3-3--------0-0-0--------0-0-0------------------------------|
Tap to rate this tab
# A B C D E F G H I J K L M N O P Q R S T U V W X Y Z