Song name
# A B C D E F G H I J K L M N O P Q R S T U V W X Y Z

Avicii - Sunshine tab

-------------------------------------------------------------------------------
                             Sunshine - Avicii
-------------------------------------------------------------------------------
Tabbed by:Kec
E-mail:mrmarkom@yahoo.com

Tuning:

e|--------------------------------------------------------------------------|
B|---------------------------------5-5-5-5-5-5-5----------------------------|
G|-----4-----------------4---6-8-4------------------------------------------|
D|-2-6---4-6-6-6-6-6---6---7------------------------------------------------|
A|-4-4-2-2-4-4-4-4-4---4-----------4-4-4-4-4-4-4----------------------------|
E|-----------------------4-5-5-7-4------------------------------------------|


Just the main part of the song, the rest goes along the line of this. Enjoy!
Tap to rate this tab
# A B C D E F G H I J K L M N O P Q R S T U V W X Y Z