Song name
# A B C D E F G H I J K L M N O P Q R S T U V W X Y Z

Avicii - Levels tab

-------------------------------------------------------------------------------
                             Avicii - Levels
-------------------------------------------------------------------------------
Tabbed by: Lukas Sint
E-mail: lukassint@gmx.at

Tuning: E A G D B E

OK guys, this one´s part picket and part strummed. The Chords have the melody
kinda in them :)

Capo 4th fret

                                                                                
          Am      C        G      F           Am      C        Gsus?  F?
e|3/5-3-0-x-x-x-x-x---x-x--x-x-x--1---3/5-3-0-x-x-x-x-x---x-x--x-x-x-x-|
B|--------1-1-1-x-1---1-1--0-0-0--1-----------1-1-1-x-1---1-1--x-x-x-x-|
G|--------2-2-2-x-2---2-2--0-0-0--2-----------2-2-2-x-2---2-2--2-2-0-0-|
D|--------2-2-2-x-2---2-2--0-0-0--3-----------2-2-2-x-2---2-2--0-0-0-0-|
A|--------0-0-0-x-3---3-3--2-2-2--3-----------0-0-0-x-3---3-3--0-0-3-3-|
E|--------x-x-x-x-x---x-x--3-3-3--1-----------x-x-x-x-x---x-x--3-3-1-1-|

You can also try to add slapping between the chords to give it some rhythm.

Lyrics:

Oh, sometimes 
I get a good feeling, yeah 
And a feeling that I never, never, never, never had before, no 
I get a good feeling, yeah 

************************************
| /   slide up
************************************
Tap to rate this tab
# A B C D E F G H I J K L M N O P Q R S T U V W X Y Z