Song name
# A B C D E F G H I J K L M N O P Q R S T U V W X Y Z

Avicii - I Could Be The One tab

-------------------------------------------------------------------------------
                 I COULD BE THE ONE  Avicii VS Nicky Romero
-------------------------------------------------------------------------------
Tabbed by: Quinten
E-mail: quintentenger@gmail.com
 
Tuning:DADGBe
 
INTRO

Lead (4x)
e|---------------------------------------------------------------------------|
B|---------------------------------------------------------------------------|
G|---------------------------------------------------------------------------|
D|---------------------------------------------------------------------------|
A|7-p-0-h-4-p-0-h-2-p-0-7-p-0-h-4-p-0-h-2-p-0-h-4--0-h-2---------------------|
D|---------------------------------------------------------------------------|
 
VERSE

Lead (4x)
e|-------------------7-5-4------5-4-0----2-----------------------------------|
B|-------------------------7-----------2-------------------------------------|
G|-----7-6-------------------6-----------------------------------------------|
D|74------7-4-7-----------------------------2-4----------------------------|
A|---------------------------------------------------------------------------|
D|---------------------------------------------------------------------------|

Rhythm (Play during last 2 times of lead)
e|0---2---0-------2---0---4--------------------------------------------------|
B|2---3---2-------2---2---5--------------------------------------------------|
G|2---4---2-------2---2---6--------------------------------------------------|
D|2---4---2-------4---2---6--------------------------------------------------|
A|0---2---0-------4---0---4--------------------------------------------------|
D|----------------4----------------------------------------------------------|

PRE-CHORUS

Lead (2x)
e|-------------------7-5-4------5-4-0----2-----------------------------------|
B|-------------------------7-----------2-------------------------------------|
G|-----7-6-------------------6---------------------------7-6-----------------|
D|74------7-4-7-----------------------------2-4-7-7-4------74-7-----------|
A|---------------------------------------------------------------------------|
D|---------------------------------------------------------------------------|
 
e|7-5-4------5-4-0----2------------------------------------------------------|
B|------7-----------2-----5--------------------------------------------------|
G|--------6-----------------6-4----------------------------------------------|
D|---------------------------------------------------------------------------|
A|---------------------------------------------------------------------------|
D|---------------------------------------------------------------------------|

Rhythm (4x)
e|---------------------------------------------------------------------------|
B|---------------------------------------------------------------------------|
G|--------------------------------4-4-4-4-6-6-6-6-7-7-7-9-9-9-9-9------------|
D|4-4-4-4-7-7-7-7-0-0-0-0-0-0-0-0-4-4-4-4-6-6-6-6-7-7-7-9-9-9-9-9------------|
A|4-4-4-4-7-7-7-7-0-0-0-0-0-0-0-0-2-2-2-2-4-4-4-4-5-5-5-7-7-7-7-7------------|
D|4-4-4-4-7-7-7-7-0-0-0-0-0-0-0-0--------------------------------------------|

CHORUS

Lead 1 (4x)
e|---------------------------------------------------------------------------|
B|---------------------------------------------------------------------------|
G|6-6-6-6-9-9-9-9-7-7-7-4-4-4-4-4--------------------------------------------|
D|x-x-x-x-x-x-x-x-x-x-x-x-x-x-x-x-4-4-4-4-6-6-6-6-7-7-7-9-9-9-9-9------------|
A|4-4-4-4-7-7-7-7-5-5-5-2-2-2-2-2-x-x-x-x-x-x-x-x-x-x-x-x-x-x-x-x------------|
D|--------------------------------4-4-4-4-6-6-6-6-7-7-7-9-9-9-9-9------------|

Lead 2 (4x)
e|---------------------------------------------------------------------------|
B|11-11-11-11-11-11-11-11-11-11-11-11\-/11-11-11-11-14-11-11-11-11-11-11-11\-|
G|---------------------------------------------------------------------------|
D|---------------------------------------------------------------------------|
A|---------------------------------------------------------------------------|
D|---------------------------------------------------------------------------|
 
Rhythm (4x)
e|---------------------------------------------------------------------------|
B|---------------------------------------------------------------------------|
G|--------------------------------4-4-4-4-6-6-6-6-7-7-7-9-9-9-9-9------------|
D|4-4-4-4-7-7-7-7-0-0-0-0-0-0-0-0-4-4-4-4-6-6-6-6-7-7-7-9-9-9-9-9------------|
A|4-4-4-4-7-7-7-7-0-0-0-0-0-0-0-0-2-2-2-2-4-4-4-4-5-5-5-7-7-7-7-7------------|
D|4-4-4-4-7-7-7-7-0-0-0-0-0-0-0-0--------------------------------------------|
 
 
************************************
 
| /   slide up
| \   slide down
| h   hammer-on
| p   pull-off
| ~   vibrato
| +   harmonic
| x   Mute note
| b   Bend
| pb  Pre-bend
| br  Bend release
| pbr Pre-bend release
| brb Bend release bend
 
************************************
Tap to rate this tab
# A B C D E F G H I J K L M N O P Q R S T U V W X Y Z