Song name
# A B C D E F G H I J K L M N O P Q R S T U V W X Y Z

Avicii - Wake Me Up tab

e|-----------------------------------------------|
B|-----------------------------------8-----------|
G|----------------8------8--8--8h10-----10--8----|
D|--10--10--8h10-----10--------------------------|
A|-----------------------------------------------|
E|-----------------------------------------------|



e|-------------------------------------------------|
B|-----------------------------------8-------------|
G|----------------8------8--8--8h10-----10--8------|
D|--10--10--8h10-----10------------------------10--|
A|-------------------------------------------------|
E|-------------------------------------------------|

and do all of this again !!!
if someone want a video tutorial :
https://www.youtube.com/watch?v=ZYzbee4rYjY

this is how i learn it !!! 
plz rate (:
Tap to rate this tab
# A B C D E F G H I J K L M N O P Q R S T U V W X Y Z