Song name
# A B C D E F G H I J K L M N O P Q R S T U V W X Y Z

Avicii - Wake Me Up tab

Here's 3 different ways to play the solo.  I think the first one is the 
easiest and sounds the best but the other 2 still sound good (and you don't 
need a capo).


Solo (12x):


capo 2

--------------------------------------0------------|
-----------1-----------1--1--1h3p1h3-----1---------|
-2--2--0h2---2---0--2------------------------------|
---------------------------------------------------|
---------------------------------------------------|
---------------------------------------------------|

or (no capo)

---------------------------------------------------|
-----------3-----------3--3--3h5p3h5--7--3---------|
-4--4--2h4---4---2--4------------------------------|
---------------------------------------------------|
---------------------------------------------------|
---------------------------------------------------|

or (no capo)

-------------------------------------------------------------|
---------------10-------------101010h12p10h12--1410-------|
-12--12--10h12----12--10--12---------------------------------|
-------------------------------------------------------------|
-------------------------------------------------------------|
-------------------------------------------------------------|
Tap to rate this tab
 
# A B C D E F G H I J K L M N O P Q R S T U V W X Y Z