Song name
# A B C D E F G H I J K L M N O P Q R S T U V W X Y Z

Avicii - Silhouettes tab

(chorus)

----------------------15-14----------------------------15-14-------| E
-17-17-17-17-17-17-15-------15----17-15-15-------------------15----| B
-------------------------------16----------16-14-14-16----------16-| G
-------------------------------------------------------------------| D
-------------------------------------------------------------------| A
-------------------------------------------------------------------| E

----------------------15-14--------------------------------------------| E
-17-17-17-17-17-17-15-------15----17-15-15-----------------------15-17-| B
-------------------------------16----------16-14-14--------12-16-------| G
-----------------------------------------------------12-14-------------| D
-----------------------------------------------------------------------| A
-----------------------------------------------------------------------| E

EASY TAB.
By: marcosld9
Tap to rate this tab
 
# A B C D E F G H I J K L M N O P Q R S T U V W X Y Z