Guitaretab - guitar tabs
Song name
# A B C D E F G H I J K L M N O P Q R S T U V W X Y Z

Avicii - Wake Me Up tab

-------------------------------------------------------------------------------
                            Wake Me Up - Avicii
-------------------------------------------------------------------------------
Tabbed by: Sean Burke
E-mail: hawaiianchimp@gmail.com


These are the basic chords.
This tab may look funny, but that's because the lyrics
are very idiosyncratic. Each chord corresponds
to the correct lyric

    Bm    G    D    A

e|--2---0---2---0------|
b|--3---2---3---2------|
g|--4---0---2---2------|
d|--4---0---0---2------|
a|--2---2---0---0------|
e|--2---3---0---0------|

Intro

Bm        G        D        D  A
Bm        G        D        D  A

Bm           G               D        D
Feeling my way through the darkness

Bm     G              D        D
Guided by a beating heart

Bm      G                 D           D
I can't tell where the journey will end

Bm   G                  D         D
But I know where it starts

Bm             G        D             D
They tell me I'm too young to understand

Bm          G              D          D
They say I'm caught up in a dream

Bm            G                 D             D
Well life will pass me by if I don't open up my eyes

Bm       G     D     D
So that's fine by me.       

So wake me...

Bm        G       D       D     A
up when it's all over... When I'm

Bm   G          D         D  A
wiser and I'm older...       All this 

Bm          G            D           D A
time I was finding myself... And I didn't 

Bm           G      D       D A
know I was lost

Solo
[ Tab from: http://www.guitaretab.com/a/avicii/367908.html ]
e|---------------------------|------------------------|
B|---------------------------|---------------7--------|
G|--------------7------------|-7--7--7h9-7h9--7-------|
D|----9--9--7h9--h9---7h9-7--|------------------------|
A|---------------------------|------------------------|
E|---------------------------|------------------------|

Repeat  12x


Bm    G              D                  D
I tried carrying the weight of the world

Bm  G                  D         D
But I only have two hands

Bm     G                     D               D
Hope I get the chance to travel the world

Bm         G           D       D
But I don't have any plans

Bm        G                   D          D
Wish that I could stay forever this young

Bm      G                       D         D
Not afraid to close my eyes

Bm     G                 D         D
Life's a game made for everyone

Bm  G            D         D
And love is the prize

So wake me...

Bm         G        D        D      A
up when it's all over... When I'm

Bm    G           D           D  A
wiser and I'm older...       All this 

Bm            G              D             D A
time I was finding myself... And I didn't 

Bm             G       D         D A
know I was lost

I didn't know I was lost

I didn't know I was lost

I didn't know I was lost

I didn't know (didn't know, didn't know)

e|---------------------------|------------------------|
B|---------------------------|---------------7--------|
G|--------------7------------|-7--7--7h9-7h9--7-------|
D|----9--9--7h9--h9---7h9-7--|------------------------|
A|---------------------------|------------------------|
E|---------------------------|------------------------|

Repeat  12x
Related for Wake Me Up tab
Wake Me Up chords by Avicii