Song name
# A B C D E F G H I J K L M N O P Q R S T U V W X Y Z

Avicii - Heart Upon My Sleeve tab

-------------------------------------------------------------------------------
                             Heart Upon My Sleeve - Avicii
-------------------------------------------------------------------------------
Tabbed by: Mattias Krantz
Youtube: mattiaskrantz

Tuning:Standard Bpm: 125    
 P.M: This is me playing the intro using this tab: http://www.youtube.com/watch?v=rsJsO7aB43c 

                                                       
e|--------------------------|--------------------------|---------------------|
B|---------------0h1p0------|--------------------------|--------0------0-----|
G|---------0------------2p0-|-------0-----0h2p0-----0--|---------------------|
D|------2-----2-------------|-----0---0----------4-----|------2------2-------|
A|---3----------------------|--------------------------|---3------3----------|
E|--------------------------|--3-----------------------|---------------------|
 
e|---0--------------|
B|---5---3----------|
G|-----------4/2-0--|
D|------------------|
A|------------------|
E|------------------|

e|--------------------------|--------------------------|---------------------|
B|---------------0h1p0------|--------------------------|--------0------0-----|
G|---------0------------2p0-|-------0----0h2p0-----0---|---------------------|
D|------2-----2-------------|-----0---0---------4------|-----2------2-----2--|
A|---3----------------------|--------------------------|--3------3------3----|
E|--------------------------|--3-----------------------|---------------------|
 

e|----------------|
B|-------0--------|
G|-------------4--|
D|----2--------2--|
A|-3--------3--3--|
E|----------------|
Tap to rate this tab
 
# A B C D E F G H I J K L M N O P Q R S T U V W X Y Z