Song name
# A B C D E F G H I J K L M N O P Q R S T U V W X Y Z

Avicii - Dear Boy tab

-------------------------------------------------------------------------------
                             Dear Boy - Avicii
-------------------------------------------------------------------------------
Tabbed by: JGloz

Tuning:Standard

Main riff:

e|----------------------------------------12-14-12---------------------------|
B|-10--10-12-14-12-10----10-----10--10-12------------------------------------|
G|---11---------------11----9-----11-----------------------------------------|
D|---------------------------------------------------------------------------|
A|---------------------------------------------------------------------------|
E|---------------------------------------------------------------------------|

e|---------------------------------------------------------------------------|
B|-10----10-12-14-12---10---10--10-12-12-14-10-------------------------------|
G|----11-------------11--9----11---------------------------------------------|
D|---------------------------------------------------------------------------|
A|---------------------------------------------------------------------------|
E|---------------------------------------------------------------------------|
Tap to rate this tab
# A B C D E F G H I J K L M N O P Q R S T U V W X Y Z