Song name
# A B C D E F G H I J K L M N O P Q R S T U V W X Y Z

Avicii - Hey Brother tab

-------------------------------------------------------------------------------
                             HEY BROTHER - Avicii
-------------------------------------------------------------------------------
Tabbed by: Luis Del Re


Tuning: Standard (CAPO 3)

e|-----------------------------------------------------------------------------|
B|-----------------------------------------------------------------------------|
G|-0---------0--4--2--0-----------------0--------------------------------------| X2
D|----0--2---------------2--0--2--0--2-----------------------------------------|
A|-----------------------------------------------------------------------------|
E|-----------------------------------------------------------------------------|

e|-----------------------------------------------------------------------------|
B|------------0----------------------------------------------------------------|
G|--2--0--2------2--0------2----------2----------------------------------------|
D|----------------------2----------2-------------------------------------------|
A|-----------------------------------------------------------------------------|
E|-----------------------------------------------------------------------------|

e|-----------------------------------------------------------------------------|
B|-----------------------------------------------------------------------------|
G|------4-4-4---2--0-----------------------------------------------------------|
D|--2-------------------2---2--0--2--------------------------------------------|
A|-----------------------------------------------------------------------------|
E|-----------------------------------------------------------------------------|
Tap to rate this tab
# A B C D E F G H I J K L M N O P Q R S T U V W X Y Z