Song name
# A B C D E F G H I J K L M N O P Q R S T U V W X Y Z

Avicii - Wake Me Up tab

| /  slide up
| \  slide down
| h  hammer-on
| p  pull-off
| ~  vibrato
| +  harmonic
| x  Mute note

The chords are 

Bm, G, D ,D

This is the main riff
e|---------------------------------------------------------------|
B|---------------------7----------7------------------------------|
G|---------------7-9-7----7-7h9-7---7----------------------------|
D|----7-9--9-7h9-------------------------------------------------|
A|---------------------------------------------------------------|
E|---------------------------------------------------------------|

Alternatively, you can bend the strings too
e|---------------------------------------------------------------|
B|---------------------(7)---------(7)---------------------------|
G|---------------7-9-7^----7-7h9-7^---7--------------------------|
D|----7-9--9-7h9-------------------------------------------------|
A|---------------------------------------------------------------|
E|---------------------------------------------------------------|

This is my first tab. Hope you liked it!

Peace.
Tap to rate this tab
# A B C D E F G H I J K L M N O P Q R S T U V W X Y Z