Song name
# A B C D E F G H I J K L M N O P Q R S T U V W X Y Z

Avicii - Dear Boy tab

-------------------------------------------------------------------------------
                            Dear Boy - Avicii
-------------------------------------------------------------------------------
Tabbed by: Roy Ram
E-mail: royram2116@gmail.com

Tuning: Standard
Capo: 11 fret

Solo I
E|-------------------------------------------3-1---------------------------------------|
B|-----------1-3-1-------------------------1-------------------------------------------|
G|---3-0-3---------3-0-3------------3-0-3----------------------------------------------|
D|-----------------------3-------------------------------------------------------------|
A|-------------------------------------------------------------------------------------|
E|-------------------------------------------------------------------------------------|


E|-------------------------------------------------------------------------------------|
B|-----------1-3-1-------------------------1-3-----------------------------------------|
G|---3-0-3---------3-0-3------------3-0-3------3---------------------------------------|
D|-----------------------3-------------------------------------------------------------|
A|-------------------------------------------------------------------------------------|
E|-------------------------------------------------------------------------------------|

Solo II


E|----------3-3-1-3------------------3-3-2-3-------------------------------------------|
B|------------------1-1-----------------------1-1--------------------------------------|
G|-----3-0--------------3-------3-0---------------3------------------------------------|
D|-------------------------------------------------------------------------------------|
A|-------------------------------------------------------------------------------------|
E|-------------------------------------------------------------------------------------|


E|----------3-3-1-3------------------3-3-2-3-------------------------------------------|
B|------------------1-1----------------------------------------------------------------|
G|-----3-0--------------3-------3-0----------------------------------------------------|
D|-------------------------------------------------------------------------------------|
A|-------------------------------------------------------------------------------------|
E|-------------------------------------------------------------------------------------|

Rate it up for more :)
Tap to rate this tab
 
# A B C D E F G H I J K L M N O P Q R S T U V W X Y Z