Song name
# A B C D E F G H I J K L M N O P Q R S T U V W X Y Z

Avion Roe - Im Not Afraid To Die tab

[tuning: drop d]



guitar 1 (Intro)
E----------------------------------------------------------------------|
B----------------------------------------------------------------------|
G----------------------------------------------------------------------|
D----9-----------------------------------------------------------------|
A-------7 *as many times necessary*------------------------------------|
D----------------------------------------------------------------------|


guitar 2

------------------------------------------------------------------------|
------------------------------------------------------------------------|
------------------------------------------------------------------------|
--9(x3)---9(x3)---6(x3)---4(x3)-----------------------------------------|
--7-------6-------4-------2---------------------------------------------|
------------------------------------------------------------------------|


chorus

------------------------------------------------------------------------|
------------------------------------------------------------------------|
------------------------------------------------------------------------|
---9---4---6---7*repeat as needed*--------------------------------------|
---7---2---4---5--------------------------------------------------------|
------------------------------------------------------------------------|
Tap to rate this tab
# A B C D E F G H I J K L M N O P Q R S T U V W X Y Z