Song name
# A B C D E F G H I J K L M N O P Q R S T U V W X Y Z

Avion Roe - Im Not Afraid To Die tab

Tuning: Drop D half step down

Intro/verse

eb--------|
Bb--------|
Gb-5-5-5--|
Db--3-3-3-| repeat until chorus
Ab--------|
Db--------|

Chorus:

eb-x-x--x--x--|
Bb-6-13-10-11-|
Gb-5-12-9--10-|
Db-3-10-7--8--|
Ab-3-10-7--8--|
Db-3-10-7--8--|

Repeat verse and chorus

Bridge:

eb---------------------------------------------|
Bb---------------------------------------------|
Gb------33-33------33-33------33-33------33-33-|
Db-0000-33-33-2222-33-33-0000-33-33-2222-33-33-|
Ab-0000-11-11-3333-11-11-0000-11-11-3333-11-11-|
Db-0000-------2222-------0000-------2222-------|

eb-------------------|
Bb-------------------|
Gb-------33-33-------|
Db-0000~-33-33-3~~~~-|
Ab-0000~-11-11-3~~~~-|
Db-0000~-------3~~~~-|

eb---1---1---1---1---1---1---1---1-|
Bb--1-1-1-1-1-1-1-1-1-1-1-1-1-1-1--|
Gb-2---2---3---3---2---2---0---0---|
Db---------------------------------| x 4
Ab---------------------------------|
Db---------------------------------|

Chorus

end on

eb-x-
Bb-6~
Gb-5~
Db-3~
Ab-3~
Db-3~
Tap to rate this tab
# A B C D E F G H I J K L M N O P Q R S T U V W X Y Z