Song name
# A B C D E F G H I J K L M N O P Q R S T U V W X Y Z

Aviv Geffen - Emesh Last Night tab

     Bm       Cmaj76    Bm       A
e||--2-----2----------|-2-----2------------|
B||o-----3----0-------|-----3----2--------o|
G||----4----------2---|---4----------2-----|
D||-------------2---2-|------------2---2---|
A||o-2--------3-------|-2--------0--------o|
E||-------------------|--------------------|

    D        G\D       A\D      D    C#
e|--2---2----3---3---|-0---0----2----------|
B|o-3---3----3---3---|-2---2----3----------|
G|----2---2----0---0-|---2---2----2--------|
D|--0--------0-------|-0--------0----------|
A|o------------------|---------------4-----|
E|-------------------|---------------------|

   Bm           F#m   G
e|-2---2---2----2---|-3---3---3---3------||
B|-3---3---3----2---|-0---0---0---0-----o||
G|---4---4---4----2-|---0---0---0---0----||
D|------------------|--------------------||
A|-2----------------|-------------------o||
E|--------------2---|-3------------------||

For any quetion: naama4592@walla.com
Tap to rate this tab
# A B C D E F G H I J K L M N O P Q R S T U V W X Y Z