Song name
# A B C D E F G H I J K L M N O P Q R S T U V W X Y Z

Avril Lavigne - Falling Down tab

----------------------------------------------------------------------------
			    Falling Down - Avril Lavigne                
----------------------------------------------------------------------------
Tabbed by: Andrew Hedstrom
Email: Hedstrom_korn@hotmail.com

Level Difficulty: 3 or 4

this is my second tab done for avril lavigne.  this tab may not seem like much, but that
is because most os Acustic, the electric just play in the backround.  anyway enjoy.

Tuning:E-A-D-G-B-E

Intro
(for the first 3 begining notes, dont strum fast, just a smoothe down strum)
e|-------------------------------------------------------------------------|
B|--------------12---------------------------------------------------------|
G|------12~--------11------------------------------------------------------|
D|----12--~----------------------------------------------------------------|
A|--10----~----------------------------9--10-12----------------------------|
E|---------------------------------------------10/12-----------------------|

Chorus - (try to follow her vocals on the picking notes.)
"i.. am falling down" 
e|-------------------------------------------------------------------------|
B|-------12~---------------------------------------------------------------|
G|----12----11~---12~-----12~-----12~------12~-----------------------------|
D|---12~----------12~-----12~-----12~------12~-----------------------------|
A|--10~-----------10~-----10~-----10~------10~-----------------------------|
E|-------------------------------------------------------------------------|

have fun.

| /  slide up
| \  slide down
| h  hammer-on
| p  pull-off
| ~  vibrato
| +  harmonic
| x  Mute note
============================================================================
Tap to rate this tab
# A B C D E F G H I J K L M N O P Q R S T U V W X Y Z