Song name
# A B C D E F G H I J K L M N O P Q R S T U V W X Y Z

Avril Lavigne - Girlfriend tab

Artist: Avril Lavigne
Album: The Best Damn Thing
Song: Girlfriend
Tabbed by: Rita :D


DROP D TUNING

/ = SLIDE UP
\ = SLIDE DOWN


INTRO x2
e|---------|
B|---------|
G|---7-----|
D|---x-----|
A|---5-----|
D|---------|

e|----------------------|
B|----------------------|
G|----------------------|
D|-1212\4444-55555555---|
A|-1212\4444-55555555---|
D|-1212\4444-55555555---|

VERSE x2
e|-------------------------------------------------------------------|
B|-------------------------------------------------------------------|
G|-77-777-777-777----------------------------------------------------|
D|-xx-xxx-xxx-xxx-777-777-777-777-999-999-999-999-555-555-555-555----|
A|-55-555-555-555-777-777-777-777-999-999-999-999-555-555-555-555----|
D|----------------777-777-777-777-999-999-999-999-555-555-555-555----|

PRECHORUS
e|---------------------------------|
B|---------------------------------|
G|---------------------------------|
D|-9---4---7--55555555/77777777----|
A|-9---4---7--55555555/77777777----|
D|-9---4---7--55555555/77777777----|

CHORUS x2
e|----------------------|
B|----------------------|
G|-77-------------------|
D|-XX-7-777/99\5-555----| x3
A|-55-7-777/99\5-555----|
D|----7-777/99\5-555----|

e|----------------------|
B|----------------------|
G|----------------------|
D|-1212\4444-55555555---|
A|-1212\4444-55555555---|
D|-1212\4444-55555555---|

VERSE x2
e|-------------------------------------------------------------------|
B|-------------------------------------------------------------------|
G|-77-777-777-777----------------------------------------------------|
D|-xx-xxx-xxx-xxx-777-777-777-777-999-999-999-999-555-555-555-555----|
A|-55-555-555-555-777-777-777-777-999-999-999-999-555-555-555-555----|
D|----------------777-777-777-777-999-999-999-999-555-555-555-555----|

PRECHORUS
e|---------------------------------|
B|---------------------------------|
G|---------------------------------|
D|-9---4---7--55555555/77777777----|
A|-9---4---7--55555555/77777777----|
D|-9---4---7--55555555/77777777----|

CHORUS x2
e|----------------------|
B|----------------------|
G|-77-------------------|
D|-XX-7-777/99\5-555----| x3
A|-55-7-777/99\5-555----|
D|----7-777/99\5-555----|

e|----------------------|
B|----------------------|
G|----------------------|
D|-1212\4444-55555555---|
A|-1212\4444-55555555---|
D|-1212\4444-55555555---|

Play this next little fill at the beginning of "In a second...", then play it again when 
repeats "In a second...", and play it when she starts to sing, "Hey, hey,..."(just one 
strum each time)
e|------|
B|------|
G|-7----|
D|-x----|
A|-5----|
D|------|

Then play this once...
e|----------------------|
B|----------------------|
G|----------------------|
D|-1212\4444-55555555---|
A|-1212\4444-55555555---|
D|-1212\4444-55555555---|

Then repeat the chorus three times and end on
e|------|
B|------|
G|-7----|
D|-x----|
A|-5----|
D|------|

That's it. Super easy song to play...
Seriously, what happened to Avril? When I first heard this song, I wanted to run and 
under the couch! But I guess it grew onto me huh? lol...I really miss Av's old music...
Tap to rate this tab
# A B C D E F G H I J K L M N O P Q R S T U V W X Y Z