Song name
# A B C D E F G H I J K L M N O P Q R S T U V W X Y Z

Avril Lavigne - Kiss Me chords

Highlighted       Show chord diagrams
Intro. : (Eb Eb7+ Eb7 Eb7+)

Eb        Eb7+
 Kiss me I'm out of the bearded barley
Eb7       Eb7+
 Nightly beside the green green grass
Eb                    Eb7+
 Swing, swing, swing the spinning step
Eb7
 you wear those shoes and I
         Ab
 Will wear that dress


 			 Fm     Bb    Eb           Cm
 Oh kiss me beneath the milky twilight
Fm     Bb    Eb           Cm
 Leave me out on the moonlit floor.
Fm          Bb                Eb
 Lift your open hand
                Eb/D              Cm
Refrain

 Strike up the band and make the fireflies
        Bb                   Ab     Bb
 Dance silver moonís sparkling?

             (Eb Eb7+ Eb7 Eb7+)

 So, kiss me

e|16-16--16-16---16---15-15----15-15----15---14-14----14-14----14--15-15---|15-13-11-13-11--|
B|------18------18---18-------18-------18---18-------18-------18--18-----18|----------------|
G|-------------------------------------------------------------------------|----------------|
D|-------------------------------------------------------------------------|----------------|
A|-------------------------------------------------------------------------|----------------|
E|-------------------------------------------------------------------------|----------------|

Eb           Eb7+
 Kiss me down by the broken tree house
Eb7         Eb7+
 Swing me upon its hanging tire
Eb                  Eb7+
 Bring, bring, bring your flowered hat
Eb7                Ab
 We'll take the trail marked on your father?s map

Refrain
(solo)


e|15-16-18-16-15-15/16-15-13-11-13-13-|10-11-13-11------------------------------|
B|------------------------------------|------------13-13-13-13-13-14------------|
G|------------------------------------|------------------------------12-12-10---|
D|------------------------------------|-----------------------------------------|
A|------------------------------------|-----------------------------------------|
E|------------------------------------|-----------------------------------------|

e|15-16-18-16-15-15/16-15-13-11-13-13-|-------------------------13-13-15-11-13--|
B|------------------------------------|-------------11-13-15-16-----------------|
G|------------------------------------|----10-12-13-----------------------------|
D|------------------------------------|-13--------------------------------------|
A|------------------------------------|-----------------------------------------|
E|------------------------------------|-----------------------------------------|

Refrain

(Eb Eb7+ Eb7 Eb7+)

So kiss me. (4x)

Eb
Tap to rate this tab
# A B C D E F G H I J K L M N O P Q R S T U V W X Y Z