Song name
# A B C D E F G H I J K L M N O P Q R S T U V W X Y Z

Avril Lavigne - Im With You tab

this is how it really goes
tabbed by braim
cappo 2nd frt
Esus4: 022200

---3-3-3-3----3-3-3-3---------------------|
---3-3-3-3----3-3-3-3----0-0-0-0----------|
---0-0-0-0----2-2-2-2----5-5-5-5----------|
---0-0-0-0----2-2-2-2----5-5-5-5----------|
---2-2-2-2--0-0-0-0-0--3-3-3-3-3----------|
-3-3-3-3-3--------------------------------|

after each time play:
-----------------------------------|
-----------------------------------|
---4b5r4b5-----or----4/7-----------|
-----------5-----------------------|
-----------------------------------|
-----------------------------------|

verse: in the org. verion its only Em and C
       it sounds good if you play this:

--0--0---0--0---0----0----------------------------|
--0--3---3--3---3----0------0--3----3--3---3---0--|
--0--0---0--0---0----0------5--5----5--5---5---5--|
--2--2---2--2---2----2------5--5----5--5---5---5--|
--2--2---2--2---2----2------3--3----3--3---3---3--|
--0--0---0--0---0----0------0--0----0--0---0---0--|
"im standin on the bridge" "im waiting on the dark"


-0--0------0-----0----0---0----0------------------|
-0--3------3-----3----3---0----0---0--------------|
-0--0------0-----0----0---0----2---5--------------|
-2--2------2-----2----2---2----2---5--------------|
-2--2------2-----2----2---2----2---3--------------|
-0--0------0-----0----0---0----0------------------|
"i thought that youd be here   by now"

Em
Im standing on the bridge
C
Im waiting in the dark
Em                                Esus4   C
I thought that you'd be here ..... by    now
Em
there is nothing but the rain
C
no footsteps on the ground
Em                       Esus4   C
Im listening but there's no     sound

D                        C
isn't anyone trying to find me
D                           C
wont somebody come take me home

CHORUS (same as intro)

its that damn cold night
trying to figure out this life
wont you take me by the hand
take me somewhere new
        Em            D
I don't know who you are
    C
but I
Em
I'm with you
C
Im with you

Im looking for a place
Im searching for a face
is anybody here I know
'cause nothing is going right
and everything's a mess
and no one likes to be alone

D                       C
isn't anyone trying to find me
D                           C
wont somebody come take me home

CHORUS

it's that damn cold night
trying to figure out this life
won't you take me by the hand
take me somewhere new
Em                   D
I don't know who you are
    C
but I

I'm with you --> play this like the intro
I'm with you
D                     C
Why is everything so confusing
D                        C
maybe I'm just out of my mind
D    C     D    C
yeah yeah yeah...

CHORUS few times
Tap to rate this tab
# A B C D E F G H I J K L M N O P Q R S T U V W X Y Z