Song name
# A B C D E F G H I J K L M N O P Q R S T U V W X Y Z

Avril Lavigne - Unwanted tab

Song: Unwanted
Artist: Avril Lavigne			     
Tabbed by: Sofa_dofa

This is my first tab I think its about 99% correct. It's a great song and really easy to play.  

Tuning: Standard

Intro:

     Em  C   D   A
     
e|---0---0---2---0-----|
B|---0---1---3---2-----|
G|---0---0---2---2-----|       x2
D|---2---2---0---2-----|
A|---2---3---0---0-----|
E|---0---0---0---0-----|

e|--------------------------------|
B|------------------3-----2-------|
G|------0-----0---2-----2---------|        x2
D|----2-----2---0-----0-----------|      
A|--2-----3-----------------------|
E|--------------------------------|


Verse:
e|--------------------------------|
B|------------------3-----2-------|
G|------0-----0---2-----2---------|        x8
D|----2-----2---0-----0-----------|      
A|--2-----3-----------------------|
E|--------------------------------|


Chorus:
     Em  C   D   A
     
e|---0---0---2---0-----|
B|---0---1---3---2-----|
G|---0---0---2---2-----|       x6
D|---2---2---0---2-----|
A|---2---3---0---0-----|
E|---0---0---0---0-----|

Good Luck!
============================================================================
Tap to rate this tab
# A B C D E F G H I J K L M N O P Q R S T U V W X Y Z