Song name
# A B C D E F G H I J K L M N O P Q R S T U V W X Y Z

Avril Lavigne - Complicated tab

Tabber: Daniel Nunes
mail: danieltrindadenunes@ig.com.br

Music: Complicated
Artist: Avril Lavigne

INTRO:

Intro A (Guitar 1)
e--1--1--1-1-1-1--1---1---1---0-0-0--1----|
B--3--3--3-3-3-3--3---1---1---1-1-1--1----|
G--2--2--2-2-2-2--2---2---2---2-2-2--2----|
D--0--0--0-0-0-0--0---3---3---2-2-2--2----|
A-----------------------------0-0-0--0----|
E-----------------------------------------|

Intro B (Guitar 2)
e----------------------------------------------------------------------|
B---------------------------------------------------------------4h5p4--|
G--5-/7~----7\5----5--2--/5--0----2-/-5-----5-/7~-----5---5------------|
D----------------------------------------------------------------------|
A----------------------------------------------------------------------|
E----------------------------------------------------------------------|

Intro C (Guitar 3)
e|--1--|------------------|--1--|----------------|
B|--3--|------------------|--3--|----------------|
G|--2--|-----------5m-5m--|--2--|------------5m--|
D|--0--|--7m-5m-7m-7m-7m--|--0--|--7m-5m-7m--7m--|
A|-----|--8m-7m-8m-8m-8m--|-----|--8m-7m-8m--8m--|
E|-----|------------------|-----|----------------|


Intro D (Guitar 2)
e------------------------------------------|-----------------------|
B------------------------------------------|-----------------------|
G--12/14--\----12/14-14--10--12--12/14--\--|-----------9hb-(9hbr)--|
D---x-----------x-----x---x---x---x--------|---9/10-10-------------|
A--10/12--\----10/12-12---8--10--10/12--\--|-----------------------|
E------------------------------------------|-----------------------|

(continued)
e------------------------------------------|---------------------------------|
B------------------------------------------|---------------------------------|
G--12/14--\----12/14-14--10--12--12/14--\--|---12/14\9-(9hb)-(9hbr)--(9hb)~~-|
D---x-----------x-----x---x---x---x--------|---------------------------------|
A--10/12--\----10/12-12---8--10--10/12--\--|---------------------------------|
E------------------------------------------|---------------------------------|

Intro E (Guitar 3)
e---------------------------------13--12--|
B-------------13--------------------------|
G-----------------------------------------|
D-----------------------15--15------------|
A--12m---15m------------------------------|
E-----------------------------------------|

(continued)
e--------------------------------------------|
B-------------13-----------------------------|
G--------------------------------------------|
D-----------------------15--15---------------|
A--12m---15m---------------------------------|
E---------------------------------12----/13--|


==========================================================================
VERSOS:

Verse A (Guitar 1)
e--1--1--1-1--1-1--1-1---1--1--1-1--1-1--1-1-------------
B--1--1--1-1--1-1--1-1---3--3--3-3--3-3--3-3-------------
G--2--2--2-2--2-2--2-2---2--2--2-2--2-2--2-2-------------
D--3--3--3-3--3-3--3-3---0--0--0-0--0-0--0-0-------------
A--------------------------------------------------------
E--------------------------------------------------------
("Chill out...")

(continued)
e--1--1--1-1--1-1--1-1---1--1--1-0--0-1-1----------------
B--1--1--1-1--1-1--1-1---1--1--1-1--1-1-1----------------
G--3--3--3-3--3-3--3-3---0--0--0-0--0-0-0----------------
D--3--3--3-3--3-3--3-3---2--2--2-2--2-2-2----------------
A--1--1--1-1--1-1--1-1---3--3--3-3--3-3-3----------------
E--------------------------------------------------------

Verse Riff 1 (Guitar 2)
e-------------------|----------------------|-------------------|-----------|
B-------------------|----------------------|-------------------|-----------|
G-------------------|----------------------|-------------------|-----------|
D--7m-7m---8m--10m--|--7m-7m-7m---8m--10m--|--7m-7m---8m--10m--|--8m--10m--|
A--8m-8m--10m--12m--|--8m-8m-8m--10m--12m--|--8m-8m--10m--12m--|--8m---8m--|
E-------------------|----------------------|-------------------|-----------|

Verse Bridge
e----------------------------------------------------------------------|
B---------11~-10~--------11~-10~--------11~-10~-11~~~~~-10~------------|
G--10~~~----------10~~~----------10~~~-----------------------10~~~~~~--|
D----------------------------------------------------------------------|
A----------------------------------------------------------------------|
E----------------------------------------------------------------------|
("No no no...")

==========================================================================
PRE-CHORUS:


Pre-Chorus A (Guitar 1)
e--1--1--1-1--1-1--1--1--1-1--1-1--1--1--1-1--1-1---0----
B--1--1--1-1--1-1--3--3--3-3--3-3--1--1--1-1--1-1---1----
G--3--3--3-3--3-3--2--2--2-2--2-2--3--3--3-3--3-3---0----
D--3--3--3-3--3-3--0--0--0-0--0-0--3--3--3-3--3-3---2----
A--1--1--1-1--1-1------------------1--1--1-1--1-1---3----
E--------------------------------------------------------
("Somebody else...")

Pre-Chorus B (Guitar 3)
e---------------------------|
B---------------------------|
G--7-7-7---7---7---7--------|
D--7-7-7---7---7---7--------| (3x)
A--5-5-5---5---5---5--------|
E---------------------------|

(continued)
e|-----|
B|-----|
G|--5--|
D|--5--|
A|--3--|
E|-----|

Pre-Chorus Riff 1 (Guitar 2)
e--13------------13------|-------------------------|
B--13------------13------|-------------------------|
G--14------------14------|--5h7p5h7p5h7p5h7p5h7p5--|
D--15--------------------|-------------------------|
A------------------------|-------------------------|
E------------------------|-------------------------|

Pre-Chorus Riff 2 (Guitar 2)
e---------------------------------------------8~----------|
B---------------------------------------------------------|
G---10~~~~~-----10~~~----10-9----10~~~--------------9~~~--|
D-----------------------------10--------------------------|
A---------------------------------------------------------|
E---------------------------------------------------------|

==========================================================================
CHORUS:

Chorus A (Guitar 2)
e------------------------------------------------------|
B------------------------------------------------------|
G------------------------------------------------------|
D------7----7-------3----3-------3----3-----5----3--5--|
A--3/5---5------5\1---1------1/3---3------3------------|
E------------------------------------------------------|
("Why'd you have to go...")

Chorus Riff 1 (Guitar 3)
e------------------------|
B--10--\-----6m--5-------|
G---9--\-----5m--4-------|  (2x)
D---7--\-----3m--2-------|
A------------------------|
E------------------------|

(continued)
e|-----------------------------------|
B|--6--\----11--\----10--\-----6m-5--|
G|--5--\----10--\-----9--\-----5m-4--|
D|--3--\-----8--\-----7--\-----3m-2--|
A|-----------------------------------|
E|-----------------------------------|
==========================================================================
POST-CHORUS:

Post-Chorus A (Guitar 2)
e--------------------|
B-----------3--6~~~--|
G-----2--3-----------|
D--5-----------------|
A--------------------|
E--------------------|

Post-Chorus B (Guitar 3)
e--------------------------------------------------------
B--------------------------------------------------------
G---------------------------3----------------------------
D--5--5--5--5--5--5--5--5---3----------------------------
A--5--5--5--5--5--5--5--5---1----------------------------
E--3--3--3--3--3--3--3--3--------------------------------
("Honestly promise me...")


==========================================================================



Ordem da M?sica:

1) Intro: A, B, C
2) Intro: A, D, E
3) Verse: A
4) Pre-Chorus: A, B
5) Chorus: A
6) Post-Chorus: A, B
7) Verse: A
8) Verse: A, Riff 1
9) Pre-Chorus: A, B, Riff 1
10) Chorus: A, Riff 1
11) Post-Chorus: A, B
12) Verse: A, Bridge
13) Verse: A
14) Pre-Chorus A, Riff 2
15) Chorus: A, Riff 1
16) Post-Chorus: A, B
17) Chorus: A, Riff 1
18) Post-Chorus: A, B
Tap to rate this tab
# A B C D E F G H I J K L M N O P Q R S T U V W X Y Z