Song name
# A B C D E F G H I J K L M N O P Q R S T U V W X Y Z

Avril Lavigne - Black Star Commercial tab

----------------------------------------------------------
                BLACK STAR - Avril Lavigne
----------------------------------------------------------
Tabbed by: Sam Latham
Email: sam-peterl@hotmail.co.uk
(19:45, 25/02/2011)

Standard Tuning.

e|-15----------|-15----------|-------15-12-|-------15-12-|
B|-------------|-------------|-13----------|-12----------|
G|-------------|-------------|-------------|-------------|
D|-------------|-------------|-------------|-------------|
A|-------------|-------------|-------------|-------------|
E|-------------|-------------|-------------|-------------|

e|-------15-12-|-------------|-------15-12-|-------15-12-|
B|-10----------|-------13-15-|-13----------|-12----------|
G|-------------|-------------|-------------|-------------|
D|-------------|----15-------|-------------|-------------|
A|-------------|-------------|-------------|-------------|
E|-------------|-------------|-------------|-------------|

e|-------15-12-|-------------|-------15-12-|-------15-12-|
B|-10----------|-------13-15-|-13----------|-12----------|
G|-------------|-------------|-------------|-------------|
D|-------------|----15-------|-------------|-------------|
A|-------------|-------------|-------------|-------------|
E|-------------|-------------|-------------|-------------|


e|-------15-12-|-------------|-------15-12-|-------15-12-|
B|-10----------|-------13-15-|-13----------|-12----------|
G|-------------|-------------|-------------|-------------|
D|-------------|----15-------|-------------|-------------|
A|-------------|-------------|-------------|-------------|
E|-------------|-------------|-------------|-------------|

e|-------15-12-|-------------|-------15-12-|-------15-12-|
B|-10----------|-------13-15-|-13----------|-12----------|
G|-------------|-------------|-------------|-------------|
D|-------------|----15-------|-------------|-------------|
A|-------------|-------------|-------------|-------------|
E|-------------|-------------|-------------|-------------|

e|-------15-12-|-------------|-------15-12-|-------15-12-|
B|-10----------|-------13-15-|-13----------|-12----------|
G|-------------|-------------|-------------|-------------|
D|-------------|----15-------|-------------|-------------|
A|-------------|-------------|-------------|-------------|
E|-------------|-------------|-------------|-------------|

e|-------15-12-|-------------|-------15-12-|-------15-12-|
B|-10----------|-------13-15-|-13----------|-12----------|
G|-------------|-------------|-------------|-------------|
D|-------------|----15-------|-------------|-------------|
A|-------------|-------------|-------------|-------------|
E|-------------|-------------|-------------|-------------|

e|-------15-12-|-------------|-------15-12-|-------15-12-|
B|-10----------|-------13-15-|-13----------|-12----------|
G|-------------|-------------|-------------|-------------|
D|-------------|----15-------|-------------|-------------|
A|-------------|-------------|-------------|-------------|
E|-------------|-------------|-------------|-------------|


e|-------15-12-|-------------|-------15-12-|-------15-12-|
B|-10----------|-------13-15-|-13----------|-12----------|
G|-------------|-------------|-------------|-------------|
D|-------------|----15-------|-------------|-------------|
A|-------------|-------------|-------------|-------------|
E|-------------|-------------|-------------|-------------|


e|-------15-12-|-------------|-------15-12-|-------15-12-|
B|-10----------|-------13-15-|-13----------|-12----------|
G|-------------|-------------|-------------|-------------|
D|-------------|----15-------|-------------|-------------|
A|-------------|-------------|-------------|-------------|
E|-------------|-------------|-------------|-------------|


e|-------15-12-|-------------|-------------|-------------|
B|-10----------|-------13-15-|-13----------|-------------|
G|-------------|-------------|-------------|-------------|
D|-------------|----15-------|-------------|-------------|
A|-------------|-------------|-------------|-------------|
E|-------------|-------------|-------------|-------------|
Tap to rate this tab
 
# A B C D E F G H I J K L M N O P Q R S T U V W X Y Z