Avril Lavigne - Darlin tab

Tuning - Standard


Verses:

e|-----------------|
B|-----------------|
G|-5-5-------------|
D|-5-5-5-5-7-7-3-3-|
A|-3-3-5-5-7-7-3-3-|
E|-----3-3-5-5-1-1-|

Chorus:

e|-----------------|
B|-----------------|
G|---------5-5-----|
D|-7-7-3-3-5-5-5-5-|
A|-7-7-3-3-3-3-5-5-|
E|-5-5-1-1-----3-3-|

Bridge:

e|-----------------|
B|-----------------|
G|-5-5-------------|
D|-5-5-5-5-7-7-3-3-|
A|-3-3-5-5-7-7-3-3-|
E|-----3-3-5-5-1-1-|
Tap to rate this tab
 
# A B C D E F G H I J K L M N O P Q R S T U V W X Y Z