Song name
# A B C D E F G H I J K L M N O P Q R S T U V W X Y Z

Avril Lavigne - Black Star tab

e|----16-16------16--13------16-13-----16-13---------------------------|
B|-----------14----------13---------------------14-16------------------|
G|---------------------------------15----------------------------------|
D|-------------------------------------------16------------------------|
A|---------------------------------------------------------------------|
E|---------------------------------------------------------------------|

e|--------------16--13------16-13-----16-13------------------------------|
B|-----------14----------13---------------------14-16--------------------|
G|---------------------------------15------------------------------------|
D|-------------------------------------------16--------------------------|
A|-----------------------------------------------------------------------|
E|-----------------------------------------------------------------------|

and it goes on~~

its my first tab so i hope its right. :)
Tap to rate this tab
# A B C D E F G H I J K L M N O P Q R S T U V W X Y Z