Guitaretab - guitar tabs
Song name
# A B C D E F G H I J K L M N O P Q R S T U V W X Y Z

Avril Lavigne - Not Enough tab

-------------------------------------------------------------------------------
Not Enough - Avril Lavigne
-------------------------------------------------------------------------------

************************************
| /   slide up
| \   slide down
| h   hammer-on
| p   pull-off
| ~   vibrato
| +   harmonic
| x   Mute note
| b   Bend
| pb  Pre-bend
| br  Bend release
| pbr Pre-bend release
| brb Bend release bend

************************************

Tuning: Standard

Intro:
e|---------------------------------------------------------------------------|
B|---------3-------3-------3-------3-------3-------3-------3-------2/3-------|
G|-----------2---------------2---------------2---------------2---------------|
D|-----0-0-----0-0-----0-0-----0-0-------------------------------------------|
A|-------------------------------------0-0-----0-0-----0-0-----0-0-----------|
E|---------------------------------------------------------------------------|

e|---------------------------------------------------------------------------|
B|--------3-------3-------3-------3-------3-------3-------3-------2/3--------|
G|----------2---------------2---------------2---------------2----------------|
D|---------------------------------------------------------------------------|
A|----2-2-----2-2-----2-2-----2-2--------------------------------------------|
E|------------------------------------3-3-----3-3-----3-3-----3-3------------|

Play this 3 times total (you'll know when she changes the chord, it'll sound off at ~44 
seconds.) This is also played during the 2nd verse, only with a slightly distorted sound.
[ Tab from: http://www.guitaretab.com/a/avril-lavigne/268209.html ]
CHORDS:
Intro: D - A - Bm - G (X3)
Pre Chorus: Bm - G - D - A (X2)
Chorus: Bm - G - D - A (X2)
Pre Verse 2: D - A - Bm - G (X1)
Verse 2: D - A - Bm - G (X2)
Pre Chorus: Bm - G - D - A (X2)
Chorus: Bm - G - D - A (X2)
Bridge: Bm - D - G - A (X4)

Guitar Solo after bridge:
e|----2---2-----2-------2---2-----2-----0-----0------------------------------|
B|----3---3---3---------3---3---3-------3---3-3-3---3-----2-----2------------|
G|--2---2---2---------0---0---0-----------2-------2-------2---2-2-2---2------|
D|0-----------------------------------0---------------------2-------2--------|
A|------------------------------------------------------0--------------------|
E|------------------3--------------------------------------------------------|

e|----2---2-----2-------2---2-----2-----0-----0------------------------------|
B|----3---3---3---------3---3---3-------3---3-3-3---3-----2-----2------------|
G|--2---2---2---------0---0---0-----------2-------2-------2---2-2-2---2------|
D|0-----------------------------------0---------------------2-------2--------|
A|------------------------------------------------------0--------------------|
E|------------------3--------------------------------------------------------|
 This solo part is played twice.

(OR the chords for the solo are: D - G - D - A) (X2)

Chorus: Bm - G - D - A (X8)

Ending Chords: D - G - D - A (X2)

Ending Tab:
e|---------------------------------------------------------------------------|
B|---------------------------------------------------------------------------|
G|---------------------------------------------------------------------------|
D|----7----5----7----2----7----5----7----2-----------------------------------|
A|----5----5----5----0----5----5----5----0-----------------------------------|
E|---------------------------------------------------------------------------|


And that is about it, I am pretty certain this is as complete as it is going to get 
without getting extremely picky. :)
Have fun!

Tabbed by: Silentthreat17
Related for Not Enough tab
Not Enough chords by Avril Lavigne