Song name
# A B C D E F G H I J K L M N O P Q R S T U V W X Y Z

Avril Lavigne - Smile tab

INTRO
E|-------------------------|
B|-------------------------|
G|-11------11---9----------|
D|-11------11---9----7-----|
A|-9-------9----7----7-----|
E|-------------------5-----| x 2


E|------------------------|
B|------------------------|
G|-----6---9----11--------|
D|-7---6---9----11--------|
A|-7---4---7----9---------|
E|-5----------------------|








 chorus (electric)           acoustic guitar can use : D,A,Fmi,E

e|--------------------------|
B|--------------------------|
G|--7-----------------------|
D|--7-----------------------|
A|--5-----------------------|
E|--------------------------|



e|--------------------------|
B|--------------------------|
G|--------------------------|
D|--7-----------------------|
A|--7-----------------------|
E|--5-----------------------|


e|--------------------------|
B|--------------------------|
G|--11----------------------|
D|--11----------------------|
A|--9-----------------------|
E|--------------------------|


e|--------------------------|
B|--------------------------|
G|--9-----------------------|
D|--9-----------------------|
A|--7-----------------------|
E|--------------------------|
Tap to rate this tab
 
# A B C D E F G H I J K L M N O P Q R S T U V W X Y Z