Song name
# A B C D E F G H I J K L M N O P Q R S T U V W X Y Z

Avril Lavigne - Nobodys Home chords

Highlighted       Show chord diagrams
Stick a CAPO ON THE 1ST FRET and have fun.
 BPM: 92
 Key: F minor

CHORDS
  Em    G   D5    D    C  Cmaj7   F#m
|--0----3----x----2----0----0------2----|
|--0----3----3----3----1----0------2----|
|--0----0----2----2----0----0------2----|
|--2----0----0----0----2----2------4----|
|--2----2----0----0----3----3------4----|
|--0----3--------------0----0------2----|

Let Ring ---------------------------------------------------------------------|
Intro
|---------------0--|----------------0--|-----------------|-----------------|
|---------0--------|----------3--------|----------------0|------------0--1-|
|------4-----4-----|-------2-----2-----|----------0------|-------0---------|
|---2--------------|----0--------------|-------2-----2---|----2-----2------|
|------------------|-------------------|----3------------|-3---------------|
|------------------|-------------------|-----------------|-----------------|

[Verse]
Em            D
  I couldn't tell you 
          Cmaj7
  Why she felt that way
      C            Em
  She felt it everyday
Em               D
  And I couldn't help her
        Cmaj7
  I just watched her make
      C              Em
  The same mistakes again

[Pre-Chorus]
Em
  What's wrong what's wrong now
D
  Too many too many problems
Cmaj7                          C
  Don't know where she belongs
C          C (rest)
  Where she belongs

[Chorus]
Em                G
  She wants to go home
G              D5
  But nobody's home
D5                 D
  That's where she lies
D
  Broken inside
Em                 G
  With no place to go
G             D5
  No place to go
D5           D
  To dry her eyes
D
  Broken inside

[Verse]
Em          D
  Open your eyes
     Cmaj7
  And look outside
  C                 Em
  Find the reasons why
                 D
  You've been rejected
         Cmaj7
  And now you can't find
   C                  Em
  What you've left behind

[Pre-Chorus]
Em
  Be strong be strong now
D
  Too many too many problems
Cmaj7
  Don't know where she belongs
C          C (rest)
  Where she belongs

[Chorus]
Em                G
  She wants to go home
G              D5
  But nobody's home
D5                 D
  That's where she lies
D
  Broken inside
Em                 G
  With no place to go
G             D5
  No place to go
D5           D
  To dry her eyes
D
  Broken inside

[Bridge]
F#m G

Em                 D
  Her feelings she hides
                      Cmaj7
  Her dreams she can't find
                   C
  She's losing her mind
                  Em
  She's falling behind
                     D
  She can't find her place
                  Cmaj7
  She's losing her faith
                     C
  She's falling from grace
C
  She's all over the place
C
  Yeah-ah

[Chorus]
Em                G
  She wants to go home
G              D5
  But nobody's home
D5                 D
  That's where she lies
D
  Broken inside
Em                 G
  With no place to go
G             D5
  No place to go
D5           D
  To dry her eyes
D
  Broken inside

[Outro]
Em             G
  She's lost inside
         D5
  Lost inside
     D
  Oh ah-oh
Em             G
  She's lost inside
         D5
  Lost inside
     D
  Oh ah-oh
    Em(Ring for 2 measures)
  Oh
Tap to rate this tab
 
# A B C D E F G H I J K L M N O P Q R S T U V W X Y Z