Song name
# A B C D E F G H I J K L M N O P Q R S T U V W X Y Z

Avril Lavigne - Rock N Roll tab

Repeat the main riff during all the song 
Repeat the beginning of the Solo at the end of the song

Tuning: EADGBe


Main Rifff 

e|----------------------|
B|----------------------|
G|--5-5-------8-8-------|
D|--5-5--8-8--8-8--6-6--|
A|--3-3--8-8--6-6--6-6--|
E|-------6-6-------4-4--|

or

e|----------------------|
B|----------------------|
G|--5-5--3-3--8-8-------|
D|--5-5--3-3--8-8--6-6--|
A|--3-3--1-1--6-6--6-6--|
E|-----------------4-4--|



Guitar Solo:
e|-------------------------------|
B|-------------------------------|
G|-3/5-5-5-5-5-5-5-5-5-5-5-5-3---|
D|-----------------------------5-|
A|-------------------------------|
E|-------------------------------|

e|-----------------------------------|
B|-----------------------------------|
G|-3/5-5-5-5-5-5-5-5-3---------------|
D|---------------------5-3-----3-5---|
A|-------------------------6-6-----6-|
E|-----------------------------------|

e|-------------------15----16-15-------|
B|-13-13-13-13-13-13----16-------18-16-|
G|-------------------------------------|
D|-------------------------------------|
A|-------------------------------------|
E|-------------------------------------|

e|-------------------18----20-|
B|-20-20-20-20-20-20----20----|
G|----------------------------|
D|----------------------------|
A|----------------------------|
E|----------------------------|
Tap to rate this tab
# A B C D E F G H I J K L M N O P Q R S T U V W X Y Z