Song name
# A B C D E F G H I J K L M N O P Q R S T U V W X Y Z

Avril Lavigne - Rock N Roll tab

Hi ! here's the solo tab of rock n roll by avril lavigne ;)
For A lesson of it , watch this : 
http://www.youtube.com/watch?v=ogE103E6cDg&feature=c4-overview&list=UU0QBLmt1YPXQVUMuYfIfsNg

e|-------------------------------|
B|-------------------------------|
G|-3/5-5-5-5-5-5-5-5-5-5-5-5-3---|
D|-----------------------------5-|
A|-------------------------------|
E|-------------------------------|

e|---------------------------------|
B|---------------------------------|
G|-3/5-5-5-5-5-5-5-5-3-------------|
D|---------------------5---3/5-----|
A|-----------------------6----6--3-|
E|---------------------------------|
Play the last note only if you want to do the solo with 2 guitars . ( like the song )

e|--------------------15-------16-15-13------|
B|-/13-13-13-13-13-13----16-16---------16-13-|
G|-------------------------------------------|
D|-------------------------------------------|
A|-------------------------------------------|
E|-------------------------------------------|

e|-/13-13-13-13-13-13-18-13-20-|
B|-----------------------------|
G|-----------------------------|
D|-----------------------------|
A|-----------------------------|
E|-----------------------------|
 
Lesson : 
http://www.youtube.com/watch?v=ogE103E6cDg&feature=c4-overview&list=UU0QBLmt1YPXQVUMuYfIfsNg
By FrankBassCover
Tap to rate this tab
# A B C D E F G H I J K L M N O P Q R S T U V W X Y Z