Song name
# A B C D E F G H I J K L M N O P Q R S T U V W X Y Z

Avril Lavigne - Give You What You Like tab

Avril Lavigne - Give You What You Like

capo on first fret

intro
e|----------------------------------|
B|----0-0----0-0-----0-0----0--0----|
G|----------------------------------| x2
D|--2--2----------------------------|
A|-----------------0--0----3--2-----|
E|---------3--3---------------------|

verse
e|----------------------------------|
B|----0-0----0-0-----0-0----0--0----|
G|----------------------------------| x8
D|--2--2----------------------------|
A|-----------------0--0----3--2-----|
E|---------3--3---------------------|

chorus
e|-0---0---3---2---0---0---0---|
B|-1---1---0---3---1---1---0---|
G|-2---0---0---2---2---0---0---| 
D|-2---2---0---0---2---2---2---|
A|-0---3---2---x---0---3---2---|
E|-----0---3---x-------0---0---|
  Am   C   G   D  Am   C   Em

play each chord 8 times except the last C 4 times and the Em chord once and let it ring

after chorus
e|----------------------------------|
B|----0-0----0-0-----0-0----0--0----|
G|----------------------------------| x1
D|--2--2----------------------------|
A|-----------------0--0----3--2-----|
E|---------3--3---------------------|

verse
e|----------------------------------|
B|----0-0----0-0-----0-0----0--0----|
G|----------------------------------| x4
D|--2--2----------------------------|
A|-----------------0--0----3--2-----|
E|---------3--3---------------------|

chorus
e|-0---0---3---2---0---0---1---2---0---0---0---|
B|-1---1---0---3---1---1---0---3---1---1---0---|
G|-2---0---0---2---2---0---0---2---2---0---0---| 
D|-2---2---0---0---2---2---0---0---2---2---2---|
A|-0---3---2---x---0---3---2---x---0---3---2---|
E|-----0---3---x-------0---3---x-------0---0---|
  Am   C   G   D  Am   C   G   D  Am   C  Em

play each chord 8 times except the last C 4 times and the Em chord once and let it ring


after chorus
e|----------------------------------|
B|----0-0----0-0-----0-0----0--0----|
G|----------------------------------| x2
D|--2--2----------------------------|
A|-----------------0--0----3--2-----|
E|---------3--3---------------------|


verse
e|----------------------------------|
B|----0-0----0-0-----0-0----0--0----|
G|----------------------------------| x4
D|--2--2----------------------------|
A|-----------------0--0----3--2-----|
E|---------3--3---------------------|


chorus
e|-0---0---3---2---0---0---1---2---0---0---0---|
B|-1---1---0---3---1---1---0---3---1---1---0---|
G|-2---0---0---2---2---0---0---2---2---0---0---| 
D|-2---2---0---0---2---2---0---0---2---2---2---|
A|-0---3---2---x---0---3---2---x---0---3---2---|
E|-----0---3---x-------0---3---x-------0---0---|
  Am   C   G   D  Am   C   G   D  Am   C  Em

play each chord 8 times except the last C 4 times and the Em chord once and let it ring


after chorus
e|---------------------------------|
B|----0-0----0-0-----0-0----0--0---|
G|---------------------------------|
D|--2--2---------------------------|
A|-----------------0--0----3--2----|
E|---------3--3--------------------|

e|-----------------------------------|
B|----0-0----0-0-----0-0----0--0-----|
G|-----------------------------------|
D|--2--2--------------------------2~-|
A|-----------------0--0----3--2------|
E|---------3--3-------------------0~-|
Tap to rate this tab
# A B C D E F G H I J K L M N O P Q R S T U V W X Y Z