Song name
# A B C D E F G H I J K L M N O P Q R S T U V W X Y Z

Avulsed - Amidt The Macabre tab

Help us improve GuitareTab! Take a short survey!
                      Avulsed- Amidst the Macabre
                     From the Album - Stabwound Orgasm
              Copyright 2001 - WWIII
                     Version 1.0 - November- 2001
Transcribed by: Mike B. 

For Questions, Comments, Newest Version, or Corrections contact
Steve S.: at Setherial99@AOL.com

..  - palm mute          /  - slide up to
 \  - slide down to      ~  - vibrato
 h  - hammer on          b  - bend
 p  - pull off            Suffixes for bend
                          ph - pinch harmonic
                           f - full bend    h - half bend
*  - see comment           r - release      t - tap bend
X  - percussion mute       ~ - vibrato bend
@  - slight palm mute     () - ghost note, sustained note

CGCFAD

Amidst the Macabre

A
|------------|-----|-------------------------------------------------|
|------------|-----|-------------------------------------------------|
|------------|-----|-------------------------------------------------|
|--7---------|--4--|----repeat---------------------------------------| 
|--9---------|--5--|-------------------------------------------------|
|-------0-0--|--0--|-------------------------------------------------|
A2 (lead)                                                            |
|------------|------------|------------------------------------------|
|------------|------------|------------------------------------------|
|------------|------------|------------------------------------------|
|--/4--6--7--|--/4--6--7--|------------------------------------------| 
|------------|------------|--5--7--7-7--7/8--10--8--7--5-------------|
|------------|------------|------------------------------------------|
|* Trill                                                             |
|------------|------------|------------------------------------------|
|------------|------------|------------------------------------------|
|------------|------------|-------------*---------*------------------|
|--/4--6--7--|--/4--6--7--|--9--7-7--67676767--46464646--2ph---------|
|------------|------------|------------------------------------------|
|------------|------------|------------------------------------------|

B1
|--------|--------|--------------------------------------------------|
|--------|--------|--------------------------------------------------|
|--------|--------|--------------------------------------------------|
|--7--7--|--5--5--|--3--3-3--repeat----------------------------------|
|--7--7--|--5--5--|--3--3-3------------------------------------------|
|--7--7--|--5--5--|--3--3-3------------------------------------------|
B2 (lead)                                                            |
|--------5-----------------------------------------------------------|
|--5--6-----8--10--9h10p9p6--9--6h9p6\5--3---------------------------|
|--------------------------------------------------------------------|
|--------------------------------------------------------------------|
|--------------------------------------------------------------------|
|--------------------------------------------------------------------|
|                                                                    |
|--------5-----------------------------------------------------------|
|--5--6-----8--10--9h10p9p6--9--6~-----------------------------------|
|--------------------------------------------------------------------|
|--------------------------------------------------------------------|
|--------------------------------------------------------------------|
|--------------------------------------------------------------------|

C1 End
|-----|--------------------------------------------------------------|
|-----|--------------------------------------------------------------|
|-----|--------------------------------------------------------------|
|--7--|--------------------------------------------------------------|
|--7--|--------------------------------------------------------------|
|--7--|--------------------------------------------------------------|
C2                                                                   |
|-------|------------------------------------------------------------|
|--17*--|------------------------------------------------------------|
|-------|------------------------------------------------------------|
|-------|------------------------------------------------------------|
|-------|------------------------------------------------------------|
|-------|------------------------------------------------------------|
Related for Amidt The Macabre tab