Guitaretab - guitar tabs
Song name
# A B C D E F G H I J K L M N O P Q R S T U V W X Y Z

Avulsed - Sweet Lobotomy tab

Band: Avulsed
Album: Eminence In Putrescence
Song: Sweet Lobotomy
Record Label: Repulse Records
Tuning: C G C F A D

-----------------------------------------------------------|
-----------------------------------------------------------|
-----------------------------------------------------------|
-----------3-4-3-------3-----------------3-4-3-------6-7-6-|
-4-4-2-4-5-1-2-1-5-2-4-1-5-4-2---4-4-2-4-1-2-1-5-4-2-4-5-4-|
-4-4-2-4-5-------5-2-4---5-4-2---4-4-2-4-------5-4-2-------|X4

-----------------------------------------------------------|
-----------------------------------------------------------|
-----------3-4-3-------3-----------------3-4-3-------6-7-6-|
-4-4-2-4-5------5-4-2---5-4-2---4-4-2-4-------5-4-2--------|
-----------------------------------------------------------|
-----------------------------------------------------------|
Lead Guitar does this after two times

------------------------------- 
------------------------------- 
------------------------------- 
---------------5-555-5-8-7-5--- 
-4-444-4-5-4-2-3-333-3-6-5-3--- 
-4-444-4-5-4-2----------------- 
                                 X2
------------------------------- 
------------------------------- 
------------------------------- 
---------------7-777-7--------- 
-4-444-4-5-4-2-5-555-5-8-7-5--- 
-4-444-4-5-4-2---------8-7-5--- 


---------------------------------------------------------|
---------------------------------------------------------|
---------------------------------------------------------|
---------3-4-3-------3-----------------3-4-3-------6-7-6-|
-4-4-2-4-1-2-1-5-2-4-1-5-4-2---4-4-2-4-1-2-1-5-4-2-4-5-4-|
-4-4-2-4-------5-2-4---5-4-2---4-4-2-4-------5-4-2-------|X4

---------------------------------------------------------|
---------------------------------------------------------|
---------3-4-3-------3-----------------3-4-3-------6-7-6-|
-4-4-2-4-------5-4-2---5-4-2---4-4-2-4-------5-4-2-------|
---------------------------------------------------------|
---------------------------------------------------------|
Lead Guitar does this after two times

---------------------------------------|
---------------------------------------|
---------------------------------------|
---------------------------------------|
-------4h5p4-2-1---------4h5p4-2-1-----|
-4-444-----------5-4-444-----------5---|
 pm...             . ...
-------------------------------------|
-------------------------------------|
-------------------------------------|
-----------------------------------5-|
-------4h5p4-2-1---------1h2p1-------|
-3-333-----------5-3-333-------6-5---|X4
 . ...             . ...

------------------------------------------ 
------------------------------------------ 
------------------------------------------ 
--------3--------------------------------- 
-----3h4-3p2h3p2-------------------------- 
-444-------------777777771010101010101010-  <--------101010101010 = 10's
 pm.             ........................  
                                           
------------------------------------       
------------------------------------       
------------------------------------       
--------3---------------------------       
-----3h4-3p2h3p2---------10-5-4-2-4-       
-444-------------7777777710-5-4-2-4-X2     
 pm.             .......... . . . .

-----------------------------|
-----------------------------|
-----------------------------|
--------------5-5555-1----0--|
-4-44-4-4-444-3-3333---------|
-4-44-4-4-444---------55-----|
   pm   . ...   ....  ..

--------------------------------|
--------------------------------|
--------------------------------|
--------------5-----------------|
-4-44-4-4-444-3-5h6p5-3-2-6-3-5-|
-4-44-4-4-444-------------------|
   pm   . ...

-----------------------------|
-----------------------------|
-----------------------------|
--------------5-5555-1----0--|
-4-44-4-4-444-3-3333---------|
-4-44-4-4-444---------55-----|
   pm   . ...   ....  ..

--------------------------------|
--------------------------------|
--------------------------------|
--------------5-4h5p4-----------|
-4-44-4-4-444-3-------6-5-6-3-5-|
-4-44-4-4-444-------------------|
   pm   . ...

-----------------------------|
-----------------------------|
-----------------------------|
--------------5-5555-1----0--|
-4-44-4-4-444-3-3333---------|
-4-44-4-4-444---------55-----|
   pm   . ...   ....  ..

--------------------------------|
--------------------------------|
--------------------------------|
--------------5-----------------|
-4-44-4-4-444-3-5h6p5-3-2-6-3-5-|
-4-44-4-4-444-------------------|
   pm   . ...

-----------------------------|
-----------------------------|
-----------------------------|
--------------5-5555-1----0--|
-4-44-4-4-444-3-3333---------|
-4-44-4-4-444---------55-----|
   pm   . ...   ....  ..
[ Tab from: http://www.guitaretab.com/a/avulsed/73740.html ]
--------------------------------|
--------------------------------|
--------------------------------|
--------------5-4h5p4-----------|
-4-44-4-4-444-3-------6-5-6-3-5-|
-4-44-4-4-444-------------------|
   pm   . ...

---------------------------------------|
---------------------------------------|
---------------------------------------|
---------------------------------------|
-------4h5p4-2-1---------4h5p4-2-1-----|
-4-444-----------5-4-444-----------5---|
 pm...             . ...
-------------------------------------|
-------------------------------------|
-------------------------------------|
-----------------------------------5-|
-------4h5p4-2-1---------1h2p1-------|
-3-333-----------5-3-333-------6-5---|X4
 . ...             . ...

------------------------------------------ 
------------------------------------------ 
------------------------------------------ 
--------3--------------------------------- 
-----3h4-3p2h3p2-------------------------- 
-444-------------777777771010101010101010-  <--------101010101010 = 10's
 pm.             ........................  
                                           
------------------------------------       
------------------------------------       
------------------------------------       
--------3---------------------------       
-----3h4-3p2h3p2---------10-5-4-2-4-       
-444-------------7777777710-5-4-2-4-X2     
 pm.             .......... . . . .

-------------|
-------------|
-------------|
-------------|
-4--7--2--5--|
-4--7--2--5--|X2
 let notes ring

-------------------------------------------|
-------------------------------------------|
---6h7p6-4------------9h10p9-7-------------|
-4---------7-6-4-6--7----------10-9-7-9-10-|
-------------------------------------------|
-------------------------------------------|

---------------------------------------|
---------------------------------------|
---4h5p4-2------------7h8p7-5----------|
-2---------5-4-2-4--5---------8-7-5-7--|
---------------------------------------|
---------------------------------------|X6

-------------------------------------------- 
-------------------------------------------- 
-------------------------------------------- 
-77777777101010101010101033333333-10-9-7---- 
-99999999121212121212121255555555--8-7-5-0-- 
-----------------------------------------0-- 
pm................................           
                                              X2
-----------------------------------------    
-----------------------------------------    
-----------------------------------------    
-77777777---101010107777-----------------    
-99999999\3-121212125555-----------------    
-----------------------------------------    
 on the slide trem pick palm muted           


----------------------------------- 
----------------------------------- 
----------------------------------- 
-666666669999999922222222--5-4-2--- 
-444444447777777700000000--3-2-0--- 
----------------------------------- 
pm..............................    
                                     X2
-----------------------             
-----------------------             
-----------------------             
-66666666---99995555---             
-44444444\1-77773333---             
-----------------------             
 on the slide trem pick palm muted  

-----------------------------|
-----------------------------|
-----------------------------|
--------------5-5555-1----0--|
-4-44-4-4-444-3-3333---------|
-4-44-4-4-444---------55-----|
   pm   . ...   ....  ..

--------------------------------|
--------------------------------|
--------------------------------|
--------------5-----------------|
-4-44-4-4-444-3-5h6p5-3-2-6-3-5-|
-4-44-4-4-444-------------------|
   pm   . ...

-----------------------------|
-----------------------------|
-----------------------------|
--------------5-5555-1----0--|
-4-44-4-4-444-3-3333---------|
-4-44-4-4-444---------55-----|
   pm   . ...   ....  ..

--------------------------------|
--------------------------------|
--------------------------------|
--------------5-4h5p4-----------|
-4-44-4-4-444-3-------6-5-6-3-5-|
-4-44-4-4-444-------------------|
   pm   . ...

-----------------------------|
-----------------------------|
-----------------------------|
--------------5-5555-1----0--|
-4-44-4-4-444-3-3333---------|
-4-44-4-4-444---------55-----|
   pm   . ...   ....  ..

--------------------------------|
--------------------------------|
--------------------------------|
--------------5-----------------|
-4-44-4-4-444-3-5h6p5-3-2-6-3-5-|
-4-44-4-4-444-------------------|
   pm   . ...

-----------------------------|
-----------------------------|
-----------------------------|
--------------5-5555-1----0--|
-4-44-4-4-444-3-3333---------|
-4-44-4-4-444---------55-----|
   pm   . ...   ....  ..

-----------------------------------|
-----------------------------------|
-----------------------------------|
--------------5-4h5p4--------------|
-4-44-4-4-444-3-------6-5-6-3-5-4--|
-4-44-4-4-444-------------------4--|
   pm   . ...
Related for Sweet Lobotomy tab