Guitaretab - guitar tabs
Song name
# A B C D E F G H I J K L M N O P Q R S T U V W X Y Z

Awake And Dreaming - Riding The Brakes tab

-------------------------------------------------------------------------------
	      Misc Unsigned Bands - Riding the Brakes , Awake and Dreaming
-------------------------------------------------------------------------------

the tuning is half-step down and I'm pretty sure this is the intro....enjoy
Tabbed by:jonn
Email:matchbook_romance_fan@hotmail.com

intro/verse:
[ Tab from: http://www.guitaretab.com/a/awake-and-dreaming/182631.html ]
e|---------------------------------------------------------------------------|
B|----3-------0----------3--------0----------3-------0-----------------------|
G|------0---------0--------0----------0--------0---------0-------------------|
D|--2-----2-2---2---2--------0------0---0--------0-----0---0-----------------|
A|--3-------3----------2--------2----------2-------2-------------------------|
E|---------------------3--------3----------0-------0-------------------------|

e|----------2h3p2-----2h3----------------------------------------------------|
B|----3---3-------3----------------------------------------------------------|
G|------2-----------2--------------------------------------------------------|
D|--0------------------------------------------------------------------------|
A|---------------------------------------------------------------------------|
E|---------------------------------------------------------------------------|

| h  hammer-on
| p  pull-off

===============================================================================

awake and dreaming website: myspace.com/awakeanddreaming
×
Riding The Brakes