Song name
# A B C D E F G H I J K L M N O P Q R S T U V W X Y Z

Away We Go - If Shes A Deciever Then Does That Make Us Divine tab

Artist/Band: Away We Go
Album: Lights! Camera! Attraction! EP [2009]
Song: If She's A Deciever, Then Does That Make Us Divine?
Transcribed by: boknoykatok (katokblog.blogspot.com)


Drop D

Intro/Verse/Chorus:

 Bm    G         D     A
---------------------------------|
---------------------------------|
---------------------------------|
-9-9-9/5--5-5-5/-0-0-0/7--7-7-7--|
-9-9-9/5--5-5-5/-0-0-0/7--7-7-7--|
-9-9-9/5--5-5-5/-0-0-0/7--7-7-7--|


Iíve got a feeling that youíre holding out on me,
And you can see everyone, but you see straight through me.
And I tried my heart out just to keep you, to keep you, happy.

Well I donít believe her, sheís a deceiver and she lies, about everything.
Well Iíd keep my distance if youíd ask me, If youíd beg.
Please keep your distance, your body is fucking with my head.


Chorus:
I figure you will never love me the way, that I love you.
And I knew this from the moment our clothes came off in your best friends room.
So letís go, so letís go.


Everyone is dying to go,
And its not the one that kills me, its what theyíre all in for.
And if they knew they would gladly stay home.
And realize that theyíre better off even if theyíre alone.


Chorus:
I figure you will never love me the way, that I love you.
And I knew this from the moment our clothes came off in your best friends room.
So letís go, so letís go.

Bridge:

 Bm    G      D     A
-2-----3------2-----0-------------|
-3-----3------3-----2-------------|
-4-----4------2-----2-------------|
-4-----5------0-----2-------------|
-2-----5------------0-------------|
----------------------------------|
(just strum the open chords)

And weíre only apart as much as air can withstand,
Without you breaking inside of my hands.
And weíre only apart as much as we both need,
So much for you ever letting me be,
So letís go, so letís go.

CHorus:
And I figure you will never love me the way, that I love you.
And I knew this from the moment our clothes came off in your best friends room.
So letís go, so letís go


CHORUS FILL: (Starts on first chorus then play it till the end)

----------------------------------|
----------------------------------|
-11-9-------------9---------------|
------11-9---9-11---11------------|
----------------------------------|
----------------------------------|

try it out and start posting em covers on youtube! haha
thanks again...
Tap to rate this tab
 
# A B C D E F G H I J K L M N O P Q R S T U V W X Y Z