Song name
# A B C D E F G H I J K L M N O P Q R S T U V W X Y Z

Away We Go - This Beat Dont Dance To Hips tab

Band: Away We Go
Song: This Beat Don't Dance To Hips (Dance Song)
Album: Lights! Camera! Attraction! EP
Tuning: Drop D
Transcribed by: boknoykatok (katokblog.blogspot.com)

This time, I'm 99.9999% sure that this tab is correct.


INTRO: (2X)

  |-------------------------------------------------------------|
L |-------------------------------------------------------------|
E |-14--14-14-12-119--11-11119-7-6--7--7-7-6-4-6--7-7-7-7-6-7-9-|
A |-------------------------------------------------------------|
D |-12--12-12-10-9-7--9--9-9-7-5-4--5--5-5-4-2-4--5-5-5-5-4-5-7-|
  |-------------------------------------------------------------|
  +                                                             +
R |-------------------------------------------------------------|
H |-------------------------------------------------------------|
Y |-11-11-11-11-11-11-7-7-7-7-7-7--7-7-7-7-7-7-7--9-9-9-9-9-9-9-|
T |-9--9--9--9--9--9--5-5-5-5-5-5--7-7-7-7-7-7-7--7-7-7-7-7-7-7-|
H |-9--9--9--9--9--9--5-5-5-5-5-5--5-5-5-5-5-5-5--7-7-7-7-7-7-7-|
M |-9--9--9--9--9--9--5-5-5-5-5-5--0-0-0-0-0-0-0--7-7-7-7-7-7-7-|


VERSE: (you can palm mute this part or not)

R |-------------------------------------------------------------|
H |-------------------------------------------------------------|
Y |-11-11-11-11-11-11-7-7-7-7-7-7--7-7-7-7-7-7-7--9-9-9-9-9-9-9-|  PLAY
T |-9--9--9--9--9--9--5-5-5-5-5-5--7-7-7-7-7-7-7--7-7-7-7-7-7-7-|   2X
H |-9--9--9--9--9--9--5-5-5-5-5-5--5-5-5-5-5-5-5--7-7-7-7-7-7-7-|
M |-9--9--9--9--9--9--5-5-5-5-5-5--0-0-0-0-0-0-0--7-7-7-7-7-7-7-|

R |-------------------------------------------------------------|
H |-------------------------------------------------------------|
Y |-------------------------------------------------------------|
T |-9-----------------0------------5--------------7-7-7-7-x-x-x-|
H |-9-----------------0------------5--------------7-7-7-7-x-x-x-|
M |-9-----------------0------------5--------------7-7-7-7-x-x-x-|


CHORUS: 2x

R |--------------------------------------------------------------|
H |--------------------------------------------------------------|
Y |---------------------------------7-7-7-7-7-7-7--9-9-9-9-9-9-9-|
T |-9-9-9-9-9-9-9-9--0-0-0-0-0-0-0--5-5-5-5-5-5-5--7-7-7-7-7-7-7-|
H |-9-9-9-9-9-9-9-9--0-0-0-0-0-0-0--5-5-5-5-5-5-5--7-7-7-7-7-7-7-|
M |-9-9-9-9-9-9-9-9--0-0-0-0-0-0-0--5-5-5-5-5-5-5--7-7-7-7-7-7-7-|
  +
  |-17-17-17-17-12-12-12-14-14-14-12-12-10-10-12-12-|
L |-------------------------------------------------|     PLAY 4X
E |-------------------------------------------------| (1X EACH CHORD)
A |-------------------------------------------------|
D |-------------------------------------------------|
  |-------------------------------------------------|

INTRO 1X
VERSE
CHORUS


CHORUS 2:

R |------------------------------------------------------------|
H |------------------------------------------------------------|
Y |-------------------------------7-7-7-7-7-7-7--9-9-9-9-9-9-9-|
T |-9-9-9-9-9-9-9--0-0-0-0-0-0-0--5-5-5-5-5-5-5--7-7-7-7-7-7-7-|
H |-9-9-9-9-9-9-9--0-0-0-0-0-0-0--5-5-5-5-5-5-5--7-7-7-7-7-7-7-|
M |-9-9-9-9-9-9-9--0-0-0-0-0-0-0--5-5-5-5-5-5-5--7-7-7-7-7-7-7-|
  +                                                            +
  |------------------------------------------------------------|
L |------------------------------------------------------------|
E |------------------------------------------------------------|
A |-------12------------12h14-12--------12------------12h14-12-|
D |-12h14----------12h14----------12h14----------12h14---------|
  |------------------------------------------------------------|
  +
  |-17-17-17-17-12-12-12-14-14-14-12-12-10-10-12-12-|
L |-------------------------------------------------|     PLAY 4X
E |-------------------------------------------------| (1X EACH CHORD)
A |-------------------------------------------------|
D |-------------------------------------------------|
  |-------------------------------------------------|


BRIDGE:

R |----------------------------------------------------------------|
H |----------------------------------------------------------------|
Y |--------111111----------1111-9----------111111------------------|   PLAY
T |-9--9-9----------5--5-5----------7--7-7----------5-5-5--5h7-5h7-|    4X
H |-9--9-9-9-9-9----5--5-5-9-9--7---7--7-7-9-9-9----5-5-5--5h7-5h7-|
M |-9--9-9----------5--5-5----------7--7-7----------5-5-5--5h7-5h7-|

R |----------------------------------------------------------------|
H |----------------------------------------------------------------|
Y |----------------------------------------------------------------|
T |-9---------------0---------------5---------------7--5---------9-|
H |-9---------------0---------------5---------------7--5---------9-|
M |-9---------------0---------------5---------------7--5---------9-|


INSTRUMENTAL BREAK: (rhythm part is actually bass lines on the EP)

R |----------------------------------------------------------------|
H |----------------------------------------------------------------|
Y |----------------------------------------------------------------|  PLAY
T |-9---9---9---9---0---0---0---0---5---5---5---5---7---7---7---7--|   4X
H |-9---9---9---9---0---0---0---0---5---5---5---5---7---7---7---7--|
M |-9---9---9---9---0---0---0---0---5---5---5---5---7---7---7---7--|

(the 3rd time lead plays this riff)
  |----------------------------------------------------------------|
L |----------------------------------------------------------------|
E |-14--14--14--14--9---9---9---9---11--11--11--11--7---7---7---7--|
A |----------------------------------------------------------------|
D |-12--12--12--12--7---7---7---7---9---9---9---9---5---5---5---5--|
  |----------------------------------------------------------------|

(4th time another guitar plays this riff)
  |----------------------------------------------------------------|
L |----------------------------------------------------------------|
E |----------------------------------------------------------------|
A |-------12------------12h14-12----------12------------12h14-12---|
D |-12h14----------12h14------------12h14----------12h14-----------|
  |----------------------------------------------------------------|

CHORUS
CHORUS2

OUTRO:

  |------------------------|
L |------------------------|
E |-14---14---14-12-11-9---|
A |------------------------|
D |-12---12---12-10-9--7---|
  |------------------------|

----

OPTIONAL:

on the outro chorus play this riff during chorus2
(jesse played this riff on the hot topic instore acoustic session)
  |-------17-------------17-------------17-------------17------|
L |-14h15----------14h15----------14h15----------14h15---------|
E |------------------------------------------------------------|
A |------------------------------------------------------------|
D |------------------------------------------------------------|
  |------------------------------------------------------------|



if anyone out there knows the lyrics for this song please email me:
boknoykatok@gmail.com

thanks and please rate.
Tap to rate this tab
 
# A B C D E F G H I J K L M N O P Q R S T U V W X Y Z