Song name
# A B C D E F G H I J K L M N O P Q R S T U V W X Y Z

Away We Go - The Weakend tab

Band: Away We Go
Song: The Weakend
Album: Lights! Camera! Attraction! EP
Tuning: Drop D
Transcribed by: boknoykatok (katokblog.blogspot.com)

i know! no ones perfect. but nobody posted, so this should serve.
and i anyone cares, some lyrics please???
please listen to song to get timing right.!>?*&^@#)!


INTRO:

  |-------------------------------------------------------------|
L |-------------------------------------------------------------|
E |--------------------------5-5-5-------repeat-----------------|
A |-3-3-3-3--7-7-7--5-5-5-5--5-5-5--------4x--------------------|
D |-3-3-3-3--7-7-7--5-5-5-5--3-3-3------------------------------|
  |-3-3-3-3--7-7-7--5-5-5-5-------------------------------------|


  |-------------------------------------------------------------|
L |-----------------------------------rep.----------------------|
E |--------------------------5-5-5----3x------------------5-5---|
A |-3-3-3-3--7-7-7--5-5-5-5--5-5-5----then----3-3-7-7-5-5-5-5---|
D |-3-3-3-3--7-7-7--5-5-5-5--3-3-3----play----3-3-7-7-5-5-3-3---|
  |-3-3-3-3--7-7-7--5-5-5-5-------------------3-3-7-7-5-5-------|
  +                                                             +
R |------------------------------------------>-optional---------|
H |----------------------------------------*/-------------------|
Y |-5-5-5-5-5-5-5-5-5-5-5-5-5-5-5----------*\-5-5-9-9-7-7-12-12-|
T |----------------------------------------*/-------------------|
H |-3-3-3-3-3-3-3-3-3-3-3-3-3-3-3----------*\-3-3-7-7-5-5-10-10-|
M |------------------------------------------>------------------|



VERSE:

  |---------------|---------------------------------------------|
L |---------let---|-----------------------------------repeat----|
E |--------ring---|------------------------5-5-5-------2x-------|
A |-3~~ ----for---|--3-3-3-3-7-7-7-5-5-5-5-5-5-5----------------|
D |-3~~ --2 beats-|--3-3-3-3-7-7-7-5-5-5-5-3-3-3----------------|
  |-3~~ ----------|--3-3-3-3-7-7-7-5-5-5-5----------------------|


  |-------------------------------------------------------------|
L |-------------------------------------------------------------|
E |--------------------------5-5-5-------repeat-----------------|
A |-3-3-3-3--7-7-7--5-5-5-5--5-5-5--------4x--------------------|
D |-3-3-3-3--7-7-7--5-5-5-5--3-3-3------------------------------|
  |-3-3-3-3--7-7-7--5-5-5-5-------------------------------------|
  +                                                             +
R |-------------------------------------------------------------|
H |-------------------------------------------------------------|
Y |-5---5---5---5---5/7/9/10--9\7-------------------------------|
T |-------------------------------------------------------------|
H |-3---3---3---3---3/5/7/8---7\5-------------------------------|
M |-------------------------------------------------------------|




CHORUS:


  |-----------------------------------------------------------------|
L |-----------------------------------------------------------------|
E |-5-5-5-5--5-5-5-5--9-9-9-9--7-7-7-7------repeat------------------|
A |-3-3-3-3--5-5-5-5--7-7-7-7--5-5-5-5--------3x--------------------|
D |-3-3-3-3--3-3-3-3--7-7-7-7--5-5-5-5------------------------------|
  |-3-3-3-3-----------7-7-7-7--5-5-5-5------------------------------|
  +                                                                 +
R |-7h8p7--7h8p7--10--7h8p7--7h8p7--10--10(8x)--8(8x)--7(8x)--5(8x)-|
H |------8------8---8------8------8---8-----------------------------|
Y |-------9------9----------9------9--------------------------------|
T |-----------------------------------------------------------------|
H |-----------------------------------------------------------------|
M |-----------------------------------------------------------------|


  |---------------------------------------------------------------|
L |---------------------------------------------------------------|
E |-5-5-5-5--5-5-5-5--------------5-5-----------------------------|
A |-3-3-3-3--5-5-5-5--3-3-7-7-5-5-5-5-----------------------------|
D |-3-3-3-3--3-3-3-3--3-3-7-7-5-5-3-3-----------------------------|
  |-3-3-3-3-----------3-3-7-7-5-5---------------------------------|
  +                                                               +
R |-7h8p7--7h8p7--10----------------------------------------------|
H |------8------8---8---------------------------------------------|
Y |-------9------9------------------------------------------------|
T |---------------------------------------------------------------|
H |---------------------------------------------------------------|
M |---------------------------------------------------------------|



VERSE 2:

  |---------------|---------------------------------------------|
L |---------let---|-----------------------------------repeat----|
E |--------ring---|------------------------5-5-5-------2x-------|
A |-3~~ ----for---|--3-3-3-3-7-7-7-5-5-5-5-5-5-5----------------|
D |-3~~ --2 beats-|--3-3-3-3-7-7-7-5-5-5-5-3-3-3----------------|
  |-3~~ ----------|--3-3-3-3-7-7-7-5-5-5-5----------------------|



  |------------------------------------------------|-------------|
L |------------------------------------------------|-------------|
E |--------------------------5-5-5-------repeat----|-5-5-7-999/--|
A |-3-3-3-3--7-7-7--5-5-5-5--5-5-5--------4x-------|-5-3-5-777/--|
D |-3-3-3-3--7-7-7--5-5-5-5--3-3-3-----------------|-3-3-5-777/--|
  |-3-3-3-3--7-7-7--5-5-5-5------------------------|---3-5-777/--|
  +                                                              +
R |------------------------------------------------|-------------|
H |------------------------------------------------|-------------|
Y |-5---5---5---5---5/7/9/10--9\7------------------|-------------|
T |------------------------------------------------|-------------|
H |-3---3---3---3---3/5/7/8---7\5------------------|-------------|
M |------------------------------------------------|-------------|





CHORUS 2:

  |-----------------------------------------------------------------|
L |-----------------------------------------------------------------|
E |-5-5-5-5--5-5-5-5--9-9-9-9--7-7-7-7------repeat------------------|
A |-3-3-3-3--5-5-5-5--7-7-7-7--5-5-5-5------chords------------------|
D |-3-3-3-3--3-3-3-3--7-7-7-7--5-5-5-5------------------------------|
  |-3-3-3-3-----------7-7-7-7--5-5-5-5------------------------------|
  +                                                                 +
R |-7h8p7--7h8p7--10--7h8p7--7h8p7--10--10(8x)--8(8x)--7(8x)--5(8x)-|
H |------8------8---8------8------8---8-----------------------------|
Y |-------9------9----------9------9--------------------------------|
T |-----------------------------------------------------------------|
H |-----------------------------------------------------------------|
M |-----------------------------------------------------------------|


  |-------------------------------------------------------------|
L |-------------------------------------------------------------|
E |-5-5-5-5--5-5-5-5--9-9-9-9--7-7-7-7----------repeat----------|
A |-3-3-3-3--5-5-5-5--7-7-7-7--5-5-5-5--------------------------|
D |-3-3-3-3--3-3-3-3--7-7-7-7--5-5-5-5--------------------------|
  |-3-3-3-3-----------7-7-7-7--5-5-5-5--------------------------|
  +                                                             +
R |-7h8p7--7h8p7--10--7h8p7--7h8p7--10--------------------------|
H |------8------8---8------8------8---8-------------------------|
Y |-------9------9----------9------9----------------------------|
T |-------------------------------------------------------------|
H |-------------------------------------------------------------|
M |-------------------------------------------------------------|



BRIDGE:

  |-----------------------------------------------|
L |-----------------------------------------------|
E |-5----5----7----9------------------------------|
A |-5----3----5----7------------------------------|
D |-3----3----5----7------------------------------|
  |------3----5----7------------------------------|


  |-----------------------------------------------|--------------5!-|
L |-----------------------------------------------|--------------5!-|
E |-5--5---5--5-------9--9---7--7--7--7---repeat--|-555555555555----|
A |-3--3---5--5-------7--7---5--5--5--5-----------|-333333333333----|
D |-3--3---3--3-------7--7---5--5--5--5-----------|-333333333333----|
  |-3--3--------------7--7---5--5--5--5-----------|-333333333333----|
  +                                               |                 +
R |-7h8p7--7h8p7--10--7h8p7--7h8p7--10------------|-----------------|
H |------8------8---8------8------8---8-----------|------ the 5! ---|
Y |-------9------9----------9------9--------------|-5~--- are ------|
T |-----------------------------------------------|---- harmonics --|
H |-----------------------------------------------|-3~--------------|
M |-----------------------------------------------|-----------------|





OUTRO CHORUS:


  |-----------------------------------------------------------------|
L |-----------------------------------------------------------------|
E |-5-5-5-5--5-5-5-5--9-9-9-9--7-7-7-7------repeat------------------|
A |-3-3-3-3--5-5-5-5--7-7-7-7--5-5-5-5------chords------------------|
D |-3-3-3-3--3-3-3-3--7-7-7-7--5-5-5-5------------------------------|
  |-3-3-3-3-----------7-7-7-7--5-5-5-5------------------------------|
  +                                                                 +
R |-7h8p7--7h8p7--10--7h8p7--7h8p7--10--10(8x)--8(8x)--7(8x)--5(8x)-|
H |------8------8---8------8------8---8-----------------------------|
Y |-------9------9----------9------9--------------------------------|
T |-----------------------------------------------------------------|
H |-----------------------------------------------------------------|
M |-----------------------------------------------------------------|


  |-----------------------------------------------------------------|
L |-----------------------------------------------------------------|
E |-5-5-5-5--5-5-5-5--9-9-9-9--7-7-7-7----------repeat--------------|
A |-3-3-3-3--5-5-5-5--7-7-7-7--5-5-5-5------------------------------|
D |-3-3-3-3--3-3-3-3--7-7-7-7--5-5-5-5------------------------------|
  |-3-3-3-3-----------7-7-7-7--5-5-5-5------------------------------|
  +                                                                 +
R |-7h8p7--7h8p7--10--7h8p7--7h8p7--10------------------------------|
H |------8------8---8------8------8---8-----------------------------|
Y |-------9------9----------9------9--------------------------------|
T |-----------------------------------------------------------------|
H |-----------------------------------------------------------------|
M |-----------------------------------------------------------------|


  |--------------------------------------------------|----------------|
L |--------------------------------------------------|----------------|
E |-5-5-5-5--5-5-5-5--9-9-9-9--7-7-7-7------repeat---|----------------|
A |-3-3-3-3--5-5-5-5--7-7-7-7--5-5-5-5---------------|----------------|
D |-3-3-3-3--3-3-3-3--7-7-7-7--5-5-5-5---------------|----------------|
  |-3-3-3-3-----------7-7-7-7--5-5-5-5---------------|----------------|
  +                                                  |                +
R |-10(8x)---8(8x)----7(8x)----5(8x)-----------------|-7h8p7--7h8p7---|
H |--------------------------------------------------|------8------8--|
Y |--------------------------------------------------|-------9------9-|
T |--------------------------------------------------|----------------|
H |--------------------------------------------------|----------------|
M |--------------------------------------------------|----------------|



anyway, if you sing, play an instrument and near iligan city, we could jam a bit..
automatic loveletter, kenotia, PARAMORE(big bit!), FLYleaf, fireflight, the soundtrack,
versaemerge, away we go, the soundtrack, hey monday, and some other female-fronted acts..

09064059333 - globe! 
boknoykatok@gmail.com - facebook
boknoykatok@yahoo.com - myspace
boknoykatok.livejournal.com - [no posts!]

oh, and mar.9,2010 sucks!!
Tap to rate this tab
# A B C D E F G H I J K L M N O P Q R S T U V W X Y Z