Song name
# A B C D E F G H I J K L M N O P Q R S T U V W X Y Z

Away We Go - Sweet Talker tab

Band: Away We Go
Song: SWEET TALKER
Tuning: Drop D
Transcribed by: boknoykatok (katokblog.blogspot.com)

this song is beautiful but sadly, will not be recorded
since the band already broke up.
but anyway, since it is not recorded on a studio
this tab is based on how they performed it live.
SWEET! 

and again. if you care, pls. help me figure out the lyrics on any
'away we go' song... i cant seem to tab lyrics by ear!! nyahaha..
"i suck at it".. i know..



INTRo:


R |------------------------------------------------------------------|
H |------------------------------------------------------------------|
Y |------------------------------------------------------------------|
T |-2-2-2-2-2-2-2-2--4-4-4-4-4-4-4-4--7-7-7-7-7-7-7--7--7--7-7-7-7-7-|
H |-2-2-2-2-2-2-2-2--4-4-4-4-4-4-4-4--7-7-7-7-7-7-7--7--7--7-7-7-7-7-|
M |-2-2-2-2-2-2-2-2--4-4-4-4-4-4-4-4--7-7-7-7-7-7-7--7--7--7-7-7-7-7-|
  +                                                                  +
  |-7-7-7-7-7-7-7-7--7-7-7-7-7-7-7-7--7-7-7-7-7-7-7--7--7--7-7-7-7-7-|
L |-9-9-9-9-9-9-9-10-9-9-9-9-9-9-9-10-9-9-9-9-9-9-9--9--9--9-9-9-9-9-|
E |-9-9-9-9-9-9-9-9--9-9-9-9-9-9-9-9--9-9-9-9-9-9-9--9--9--9-9-9-9-9-|
A |------------------------------------------------------------------|
D |------------------------------------------------------------------|
  |------------------------------------------------------------------|


R |------------------------------------------------------------------|
H |------------------------------------------------------------------|
Y |------------------------------------------------------------------|
T |-2-2-2-2-2-2-2-2--4-4-4-4-4-4-4-4--7-7-7-7-7-7-7--7~--------------|
H |-2-2-2-2-2-2-2-2--4-4-4-4-4-4-4-4--7-7-7-7-7-7-7--7~--------------|
M |-2-2-2-2-2-2-2-2--4-4-4-4-4-4-4-4--7-7-7-7-7-7-7--7~--------------|
  +                                                                  +
  |-7-7-7-7-7-7-7-7--7-7-7-7-7-7-7-7--7-7-7-7-7-7-7--7-7-7-7-7-7-7---|
L |-9-9-9-9-9-9-9-10-9-9-9-9-9-9-9-10-9-9-9-9-9-9-9--7-7-7-7-7h9p7---|
E |-9-9-9-9-9-9-9-9--9-9-9-9-9-9-9-9--9-9-9-9-9-9-9--9-9-9-9-9-9-9---|
A |------------------------------------------------------------------|
D |------------------------------------------------------------------|
  |------------------------------------------------------------------|


R |-------------------------------------------------------------------|
H |-------------------------------------------------------------------|
Y |-------------------------------------------------------------------|
T |-2-2-2-2-2-2-2-2-4-4-4-4-4-4-4-4--7-7-7-7-7-7-7-7-7-7-7-7-7-7-7-7--|
H |-2-2-2-2-2-2-2-2-4-4-4-4-4-4-4-4--7-7-7-7-7-7-7-7-7-7-7-7-7-7-7-7--|
M |-2-2-2-2-2-2-2-2-4-4-4-4-4-4-4-4--7-7-7-7-7-7-7-7-7-7-7-7-7-7-7-7--|
  +                                                                   +
  |-------------------------------------------------------------------|
L |-------------------------------------------------------------------|
E |-9-9-9/11-11-11-11-11-11-11-11-11-9-9-9/11-11-11-11-11-11-11-11-11-|
A |-------------------------------------------------------------------|
D |-7-7-7/9--9--9--9--9--9--9--9--9--7-7-7/9--9--9--9--9--9--9--9--9--|
  |-------------------------------------------------------------------|


R |-------------------------------------------------------------------|
H |-------------------------------------------------------------------|
Y |-------------------------------------------------------------------|
T |-2-2-2-2-2-2-2-2-4-4-4-4-4-4-4-4-7-7-7-7-7-7-7-7-7-7-7-7-7-7-7-7---|
H |-2-2-2-2-2-2-2-2-4-4-4-4-4-4-4-4-7-7-7-7-7-7-7-7-7-7-7-7-7-7-7-7---|
M |-2-2-2-2-2-2-2-2-4-4-4-4-4-4-4-4-7-7-7-7-7-7-7-7-7-7-7-7-7-7-7-7---|
  +                                                                   +
  |-------------------------------------------------------------------|
L |-------------------------------------------------------------------|
E |-14-14-13-13-14-14-13-13-11-13---11-11-13-13-11-11-9-9-9-9/11-9----|
A |-------------------------------------------------------------------|
D |-12-12-11-11-12-12-11-11-9--11---9--9--11-11-9--9--7-7-7-7/9--7----|
  |-------------------------------------------------------------------|



VERSE:

R |------------------------------------------------------------------|
H |------------------------------------------------------------------|
Y |------------------------------------------------------------------|
T |-2-2-2-2-2-2-2-2--4-4-4-4-4-4-4-4--7-7-7-7-7-7-7--7--7--7-7-7-7-7-|
H |-2-2-2-2-2-2-2-2--4-4-4-4-4-4-4-4--7-7-7-7-7-7-7--7--7--7-7-7-7-7-|
M |-2-2-2-2-2-2-2-2--4-4-4-4-4-4-4-4--7-7-7-7-7-7-7--7--7--7-7-7-7-7-|
  +                                                                  +
  |-7-7-7-7-7-7-7-7--7-7-7-7-7-7-7-7--7-7-7-7-7-7-7--7--7--7-7-7-7-7-|
L |-9-9-9-9-9-9-9-10-9-9-9-9-9-9-9-10-9-9-9-9-9-9-9--9--9--9-9-9-9-9-|
E |-9-9-9-9-9-9-9-9--9-9-9-9-9-9-9-9--9-9-9-9-9-9-9--9--9--9-9-9-9-9-|
A |------------------------------------------------------------------|
D |------------------------------------------------------------------|
  |------------------------------------------------------------------|


R |------------------------------------------------------------------|
H |------------------------------------------------------------------|
Y |------------------------------------------------------------------|
T |-2-2-2-2-2-2-2-2--4-4-4-4-4-4-4-4--7-7-7-7-7-7-7--7--7--7-7-7-7-7-|
H |-2-2-2-2-2-2-2-2--4-4-4-4-4-4-4-4--7-7-7-7-7-7-7--7--7--7-7-7-7-7-|
M |-2-2-2-2-2-2-2-2--4-4-4-4-4-4-4-4--7-7-7-7-7-7-7--7--7--7-7-7-7-7-|
  +                                                                  +
  |-7-7-7-7-7-7-7-7--7-7-7-7-7-7-7-7--7-7-7-7-7-7-7--7-7-7-7-7-7-7---|
L |-9-9-9-9-9-9-9-10-9-9-9-9-9-9-9-10-9-9-9-9-9-9-9--7-7-7-7-7h9p7---|
E |-9-9-9-9-9-9-9-9--9-9-9-9-9-9-9-9--9-9-9-9-9-9-9--9-9-9-9-9-9-9---|
A |------------------------------------------------------------------|
D |------------------------------------------------------------------|
  |------------------------------------------------------------------|


R |------------------------------------------------------------------|
H |------------------------------------------------------------------|
Y |------------------------------------------------------------------|
T |-2---2---2---2---4---4---4---4---7---7---7---7---7---7---7---7----|
H |-2---2---2---2---4---4---4---4---7---7---7---7---7---7---7---7----|
M |-2---2---2---2---4---4---4---4---7---7---7---7---7---7---7---7----|
  +                                                                  +
  |-7---7---7---7---7---7---7---7---7-----7-----7----7----7----7-7---|
L |-7---7---7---7---9---9---9---9---10p9--7h9---10p9-7h9--9h10p9-7h9-|
E |-9---9---9---9---9---9---9---9---9-----9-----9----9----9----9-9---|
A |------------------------------------------------------------------|
D |------------------------------------------------------------------|
  |------------------------------------------------------------------|


R |------------------------------------------------------------------|
H |------------------------------------------------------------------|
Y |------------------------------------------------------------------|
T |-2---2---2---2---4---4---4---4---7---7---7---7---7---7---7---7----|
H |-2---2---2---2---4---4---4---4---7---7---7---7---7---7---7---7----|
M |-2---2---2---2---4---4---4---4---7---7---7---7---7---7---7---7----|
  +                                                                  +
  |-7---7---7---7---7---7---7---7---7-----7----7-7-7---7--7-7-7---7--|
L |-7---7---7---7---9---9---9---9---10p9--7h9--7-7-7h9p7--7-7-7h9p7--|
E |-9---9---9---9---9---9---9---9---9-----9----9-9-9---9--9-9-9---9--|
A |------------------------------------------------------------------|
D |------------------------------------------------------------------|
  |------------------------------------------------------------------|


R |----|
H |----|
Y |----|
T |-2~-|
H |-2~-|
M |-2~-|
	


CHORUS:

R |-------------------------------------------------------------------|
H |-------------------------------------------------------------------|
Y |-------------------------------------------------------------------|
T |-2-2-2-2-2-2-2-2-4-4-4-4-4-4-4-4--7-7-7-7-7-7-7-7-7-7-7-7-7-7-7-7--|
H |-2-2-2-2-2-2-2-2-4-4-4-4-4-4-4-4--7-7-7-7-7-7-7-7-7-7-7-7-7-7-7-7--|
M |-2-2-2-2-2-2-2-2-4-4-4-4-4-4-4-4--7-7-7-7-7-7-7-7-7-7-7-7-7-7-7-7--|
  +                                                                   +
  |-------------------------------------------------------------------|
L |-------------------------------------------------------------------|
E |-9-9-9/11-11-11-11-11-11-11-11-11-9-9-9/11-11-11-11-11-11-11-11-11-|
A |-------------------------------------------------------------------|
D |-7-7-7/9--9--9--9--9--9--9--9--9--7-7-7/9--9--9--9--9--9--9--9--9--|
  |-------------------------------------------------------------------|


R |-------------------------------------------------------------------|
H |-------------------------------------------------------------------|
Y |-------------------------------------------------------------------|
T |-2-2-2-2-2-2-2-2-4-4-4-4-4-4-4-4-7-7-7-7-7-7-7-7-7-7-7-7-7-7-7-7---|
H |-2-2-2-2-2-2-2-2-4-4-4-4-4-4-4-4-7-7-7-7-7-7-7-7-7-7-7-7-7-7-7-7---|
M |-2-2-2-2-2-2-2-2-4-4-4-4-4-4-4-4-7-7-7-7-7-7-7-7-7-7-7-7-7-7-7-7---|
  +                                                                   +
  |-------------------------------------------------------------------|
L |-------------------------------------------------------------------|
E |-14-14-13-13-14-14-13-13-11-13---11-11-13-13-11-11-9-9-9-9/11-9----|
A |-------------------------------------------------------------------|
D |-12-12-11-11-12-12-11-11-9--11---9--9--11-11-9--9--7-7-7-7/9--7----|
  |-------------------------------------------------------------------|


R |----|
H |----|
Y |----|
T |-2--|
H |-2--|
M |-2--|



VERSE 2:

R |------------------------------------------------------------------|
H |------------------------------------------------------------------|
Y |------------------------------------------------------------------|
T |-2~---------2--2--4~---------4--4--7~--------7-7--7--7---7-7-7----|
H |-2~---------2--2--4~---------4--4--7~--------7-7--7--7---7-7-7----|
M |-2~---------2--2--4~---------4--4--7~--------7-7--7--7---7-7-7----|
  +                                                                  +
  |-7-7-7-7-7-7-7-7--7-7-7-7-7-7-7-7--7-7-7-7-7-7-7--7--7--7-7-7-7-7-|
L |-9-9-9-9-9-9-9-10-9-9-9-9-9-9-9-10-9-9-9-9-9-9-9--9--9--9-9-9-9-9-|
E |-9-9-9-9-9-9-9-9--9-9-9-9-9-9-9-9--9-9-9-9-9-9-9--9--9--9-9-9-9-9-|
A |------------------------------------------------------------------|
D |------------------------------------------------------------------|
  |------------------------------------------------------------------|



R |------------------------------------------------------------------|
H |------------------------------------------------------------------|
Y |------------------------------------------------------------------|
T |-2~---------2--2--4~---------4--4--7~--------7-7--7--7---7-7-7----|
H |-2~---------2--2--4~---------4--4--7~--------7-7--7--7---7-7-7----|
M |-2~---------2--2--4~---------4--4--7~--------7-7--7--7---7-7-7----|
  +                                                                  +
  |-7-7-7-7-7-7-7-7--7-7-7-7-7-7-7-7--7-7-7-7-7-7-7--7-7-7-7-7-7-7---|
L |-9-9-9-9-9-9-9-10-9-9-9-9-9-9-9-10-9-9-9-9-9-9-9--7-7-7-7-7h9p7---|
E |-9-9-9-9-9-9-9-9--9-9-9-9-9-9-9-9--9-9-9-9-9-9-9--9-9-9-9-9-9-9---|
A |------------------------------------------------------------------|
D |------------------------------------------------------------------|
  |------------------------------------------------------------------|


R |------------------------------------------------------------------|
H |------------------------------------------------------------------|
Y |------------------------------------------------------------------|
T |-2---2---2---2---4---4---4---4---7---7---7---7---7---7---7---7----|
H |-2---2---2---2---4---4---4---4---7---7---7---7---7---7---7---7----|
M |-2---2---2---2---4---4---4---4---7---7---7---7---7---7---7---7----|
  +                                                                  +
  |-7---7---7---7---7---7---7---7---7-----7-----7----7----7----7-7---|
L |-7---7---7---7---9---9---9---9---10p9--7h9---10p9-7h9--9h10p9-7h9-|
E |-9---9---9---9---9---9---9---9---9-----9-----9----9----9----9-9---|
A |------------------------------------------------------------------|
D |------------------------------------------------------------------|
  |------------------------------------------------------------------|


R |------------------------------------------------------------------|
H |------------------------------------------------------------------|
Y |------------------------------------------------------------------|
T |-2---2---2---2---4---4---4---4---7---7---7---7---7---7---7---7----|
H |-2---2---2---2---4---4---4---4---7---7---7---7---7---7---7---7----|
M |-2---2---2---2---4---4---4---4---7---7---7---7---7---7---7---7----|
  +                                                                  +
  |-7---7---7---7---7---7---7---7---7-----7----7-7-7---7--7-7-7---7--|
L |-7---7---7---7---9---9---9---9---10p9--7h9--7-7-7h9p7--7-7-7h9p7--|
E |-9---9---9---9---9---9---9---9---9-----9----9-9-9---9--9-9-9---9--|
A |------------------------------------------------------------------|
D |------------------------------------------------------------------|
  |------------------------------------------------------------------|


R |----|
H |----|
Y |----|
T |-2~-|
H |-2~-|
M |-2~-|
	



CHORUS 2:

R |-------------------------------------------------------------------|
H |-------------------------------------------------------------------|
Y |-------------------------------------------------------------------|
T |-2-2-2-2-2-2-2-2-4-4-4-4-4-4-4-4--7-7-7-7-7-7-7-7-7-7-7-7-7-7-7-7--|
H |-2-2-2-2-2-2-2-2-4-4-4-4-4-4-4-4--7-7-7-7-7-7-7-7-7-7-7-7-7-7-7-7--|
M |-2-2-2-2-2-2-2-2-4-4-4-4-4-4-4-4--7-7-7-7-7-7-7-7-7-7-7-7-7-7-7-7--|
  +                                                                   +
  |-------------------------------------------------------------------|
L |-------------------------------------------------------------------|
E |-9-9-9/11-11-11-11-11-11-11-11-11-9-9-9/11-11-11-11-11-11-11-11-11-|
A |-------------------------------------------------------------------|
D |-7-7-7/9--9--9--9--9--9--9--9--9--7-7-7/9--9--9--9--9--9--9--9--9--|
  |-------------------------------------------------------------------|


R |-------------------------------------------------------------------|
H |-------------------------------------------------------------------|
Y |-------------------------------------------------------------------|
T |-2-2-2-2-2-2-2-2-4-4-4-4-4-4-4-4-7-7-7-7-7-7-7-7-7-7-7-7-7-7-7-7---|
H |-2-2-2-2-2-2-2-2-4-4-4-4-4-4-4-4-7-7-7-7-7-7-7-7-7-7-7-7-7-7-7-7---|
M |-2-2-2-2-2-2-2-2-4-4-4-4-4-4-4-4-7-7-7-7-7-7-7-7-7-7-7-7-7-7-7-7---|
  +                                                                   +
  |-------------------------------------------------------------------|
L |-------------------------------------------------------------------|
E |-14-14-13-13-14-14-13-13-11-13---11-11-13-13-11-11-9-9-9-9/11-9----|
A |-------------------------------------------------------------------|
D |-12-12-11-11-12-12-11-11-9--11---9--9--11-11-9--9--7-7-7-7/9--7----|
  |-------------------------------------------------------------------|


BRIDGE:

R |-------------------------------------------------------------------|
H |-------------------------------------------------------------------|
Y |-------------------------------------------------------------------|
T |-4--4--4-4----7--7-7--7-7-7-----4--4--4-4----7--7-7--7-7-7---------|
H |-4--4--4-4----7--7-7--7-7-7-----4--4--4-4----7--7-7--7-7-7---------|
M |-4--4--4-4----7--7-7--7-7-7-----4--4--4-4----7--7-7--7-7-7---------|
  +                                                                   +
  |-------------------------------------------------------------------|
L |-------------------------------------------------------------------|
E |-14-14-14-14--9--9-9--9-9-9-----14-14-14-14--9--9-9--9-9-9---------|
A |-------------------------------------------------------------------|
D |-12-12-12-12--7--7-7--7-7-7-----12-12-12-12--7--7-7--7-7-7---------|
  |-------------------------------------------------------------------|



R |-------------------------------------------------------------------|
H |-------------------------------------------------------------------|
Y |-------------------------------------------------------------------|
T |-4--4--4-4----7--7-7--7-7-7-----4--4--4-4/---7--7-7-7--7-7-7-7-----|
H |-4--4--4-4----7--7-7--7-7-7-----4--4--4-4/---7--7-7-7--7-7-7-7-----|
M |-4--4--4-4----7--7-7--7-7-7-----4--4--4-4/---7--7-7-7--7-7-7-7-----|
  +                                                                   +
  |-------------------------------------------------------------------|
L |-------------------------------------------------------------------|
E |-14-14-14-14--9--9-9--9-9-9-----14-14-14-14--9--9-9-9--9-9-9-9-----|
A |-------------------------------------------------------------------|
D |-12-12-12-12--7--7-7--7-7-7-----12-12-12-12--7--7-7-7--7-7-7-7-----|
  |-------------------------------------------------------------------|


R |-------------------------------------------------------------------|
H |-------------------------------------------------------------------|
Y |-------------------------------------------------------------------|
T |-2~---------7~-----------7~------------7~----x-x-x-x--x-x-x-x--x-x-|
H |-2~---------7~-----------8~------------7~----x-x-x-x--x-x-x-x--x-x-|
M |-2~---------7~-----------7~------------7~----x-x-x-x--x-x-x-x--x-x-|





OUTRO CHORUS: (SAME NOTES BUT STRUM SLIGHTLY SLOWER/DIFFERENT, listen to song)

R |-------------------------------------------------------------------|
H |-------------------------------------------------------------------|
Y |-------------------------------------------------------------------|
T |-2-2-2-2-2-2-2-2-4-4-4-4-4-4-4-4--7-7-7-7-7-7-7-7-7-7-7-7-7-7-7-7--|
H |-2-2-2-2-2-2-2-2-4-4-4-4-4-4-4-4--7-7-7-7-7-7-7-7-7-7-7-7-7-7-7-7--|
M |-2-2-2-2-2-2-2-2-4-4-4-4-4-4-4-4--7-7-7-7-7-7-7-7-7-7-7-7-7-7-7-7--|
  +                                                                   +
  |-------------------------------------------------------------------|
L |-------------------------------------------------------------------|
E |-9-9-9/11-11-11-11-11-11-11-11-11-9-9-9/11-11-11-11-11-11-11-11-11-|
A |-------------------------------------------------------------------|
D |-7-7-7/9--9--9--9--9--9--9--9--9--7-7-7/9--9--9--9--9--9--9--9--9--|
  |-------------------------------------------------------------------|


R |-------------------------------------------------------------------|
H |-------------------------------------------------------------------|
Y |-------------------------------------------------------------------|
T |-2-2-2-2-2-2-2-2-4-4-4-4-4-4-4-4-7-7-7-7-7-7-7-7-7-7-7-7-7-7-7-7---|
H |-2-2-2-2-2-2-2-2-4-4-4-4-4-4-4-4-7-7-7-7-7-7-7-7-7-7-7-7-7-7-7-7---|
M |-2-2-2-2-2-2-2-2-4-4-4-4-4-4-4-4-7-7-7-7-7-7-7-7-7-7-7-7-7-7-7-7---|
  +                                                                   +
  |-------------------------------------------------------------------|
L |-------------------------------------------------------------------|
E |-14-14-13-13-14-14-13-13-11-13---11-11-13-13-11-11-9-9-9-9/11-9----|
A |-------------------------------------------------------------------|
D |-12-12-11-11-12-12-11-11-9--11---9--9--11-11-9--9--7-7-7-7/9--7----|
  |-------------------------------------------------------------------|




OUTRO CHORUS 2: (NORMAL)

R |-------------------------------------------------------------------|
H |-------------------------------------------------------------------|
Y |-------------------------------------------------------------------|
T |-2-2-2-2-2-2-2-2-4-4-4-4-4-4-4-4--7-7-7-7-7-7-7-7-7-7-7-7-7-7-7-7--|
H |-2-2-2-2-2-2-2-2-4-4-4-4-4-4-4-4--7-7-7-7-7-7-7-7-7-7-7-7-7-7-7-7--|
M |-2-2-2-2-2-2-2-2-4-4-4-4-4-4-4-4--7-7-7-7-7-7-7-7-7-7-7-7-7-7-7-7--|
  +                                                                   +
  |-------------------------------------------------------------------|
L |-------------------------------------------------------------------|
E |-9-9-9/11-11-11-11-11-11-11-11-11-9-9-9/11-11-11-11-11-11-11-11-11-|
A |-------------------------------------------------------------------|
D |-7-7-7/9--9--9--9--9--9--9--9--9--7-7-7/9--9--9--9--9--9--9--9--9--|
  |-------------------------------------------------------------------|


R |---------------------------------------------------------------------|
H |---------------------------------------------------------------------|
Y |---------------------------------------------------------------------|
T |-2-2-2-2-2-2-2-2-4-4-4-4-4-4-4-4-7-7-7-7-7-7-7-7-7-7-7-7-7-7-7-7--2~-|
H |-2-2-2-2-2-2-2-2-4-4-4-4-4-4-4-4-7-7-7-7-7-7-7-7-7-7-7-7-7-7-7-7--2~-|
M |-2-2-2-2-2-2-2-2-4-4-4-4-4-4-4-4-7-7-7-7-7-7-7-7-7-7-7-7-7-7-7-7--2~-|
  +                                                                     +
  |---------------------------------------------------------------------|
L |---------------------------------------------------------------------|
E |-14-14-13-13-14-14-13-13-11-13---11-11-13-13-11-11-9-9-9-9/11-9---4~-|
A |------------------------------------------------------------------2~-|
D |-12-12-11-11-12-12-11-11-9--11---9--9--11-11-9--9--7-7-7-7/9--7---2~-|
  |------------------------------------------------------------------2~-|
Tap to rate this tab
 
# A B C D E F G H I J K L M N O P Q R S T U V W X Y Z