Song name
# A B C D E F G H I J K L M N O P Q R S T U V W X Y Z

Awkward Dream - Way Will Be tab

Guitar Tabs by: Awkward Dream
Tabs for song: This Way Will Be
----------------------------------PLEASE NOTE------------------------------
 This file is the author's own work and represents their interpretation of the
 song. You may only use this file for private study, scholarship, or research.
---------------------------------------------------------------------------

woooooooooooo im on the internet

-------------------------------------------------------------------------------------- } 
        This Way Will Be - Awkward Dream
-------------------------------------------------------------------------------------- }
dont come thanking me all at once

By:Elliot stockill (EllStockill@hotmail.co.uk)
Palm Mute = ........
Hammer On = h
Pull Off  = p
Intro

e|------------------------------------------|  }

B|------------------------------------------| 
}
G|------------------------------------------| 
}
D|------------------------------------------| 
}
A|--8--8-8-10--8-8--8--8-8-10--8-8--8--8-10-| 
}
E|-10-1010-10-1010-10-1010-10-1010-10-10-10-|  }pm    ....    ....    ....    ....    .. 
     }  }
e|-------------------------------------|      
}
B|-------------------------------------|      
}
G|-------------------------------------|      
}
D|-------------------------------------|      
}

}
E|-8--88--8--88--8--88--8--88--8--8--8-|       }pm    ..     ..     ..     ..     .      
     }  } x2

e|-------------------------------------|      -------------------------------------- }
B|-------------------------------------|      -------------------------------------- }
G|-------------------------------------|      -------------------------------------- }
D|-------------------------------------|      -------------------------------------- }
A|-7--77--8--77--7--77--8--77--7--7--8-|      -------------------------------------- }
E|-5--55--5--55--5--55--5--55--5--5--5-|       }pm    ..     ..     ..     ..     .  }

e|----------------------------------------|    }
B|----------------------------------------|    }
G|----------------------------------------|    }
D|----------------------------------------|    }
A|-8--88--10--88--8--88--10--88--8--8--10-|    }
E|-6--66---6--66--6--66---6--66--6--6---6-|    }pm    ..      ..     ..      ..     .
Verse

e|----------------------------------------------------------------------- }
B|----------------------------------------------------------------------- }
G|----------------------------------------------------------------------- }
D|----------------------------------------------------------------------- }
A|-8------10------8------10------8----10-----7----8----7----8----7---8--- }
E|---1010----1010---1010----1010---10----10----88---88---88---88---8---8- }              
                                                              x2
e|----------------------------------------------------------------------- }
B|----------------------------------------------------------------------- }
G|----------------------------------------------------------------------- }
D|----------------------------------------------------------------------- }
A|-7----8----7----8----7---8----8----10----8----10----8---10------------- }
E|---55---55---55---55---5---5----66----66---66----66---6----6----------- }
Pre-Chorus

e|---------------------------------|
B|---------------------------------|
G|---------------------------------|
D|---------------------------------|
A|--8-10-------7777888--8888101010-| x2
E|-10-10-------5555555--6666-6-6-6-|

e|----------------------------------|    |--------------|
B|----------------------------------|    |--------------|
G|----------------------------------|    |--------------|
D|-------10-------------------------|    |-101010101010-|
A|--8h10-10-----7777888--8888101010-| x2 |-101010101010-|
E|-10-10--8-----5555555--6666-6-6-6-|    |--8-8-8-8-8-8-|Intro

e|------------------------------------------| 
}
B|------------------------------------------| 
}
G|------------------------------------------| 
}
D|------------------------------------------| 
}
A|--8--8-8-10--8-8--8--8-8-10--8-8--8--8-10-| 
}
E|-10-1010-10-1010-10-1010-10-1010-10-10-10-|  }pm    ....    ....    ....    ....    .. 
     }  }
e|-------------------------------------|      
}
B|-------------------------------------|      
}
G|-------------------------------------|      
}
D|-------------------------------------|      
}
A|-7--77--8--77--7--77--8--77--7--7--8-|      
}
E|-8--88--8--88--8--88--8--88--8--8--8-|       }pm    ..     ..     ..     ..     .      
    --- }
                                               } x2
e|-------------------------------------|      -------------------------------------- }
B|-------------------------------------|      -------------------------------------- }
G|-------------------------------------|      -------------------------------------- }
D|-------------------------------------|      -------------------------------------- }
A|-7--77--8--77--7--77--8--77--7--7--8-|      -------------------------------------- }
E|-5--55--5--55--5--55--5--55--5--5--5-|       }pm    ..     ..     ..     ..     .  }
e|----------------------------------------|   -------------------------------------- }
B|----------------------------------------|   -------------------------------------- }
G|----------------------------------------|   -------------------------------------- }
D|----------------------------------------|   -------------------------------------- }
A|-8--88--10--88--8--88--10--88--8--8--10-|   -------------------------------------- }
E|-6--66---6--66--6--66---6--66--6--6---6-|   -------------------------------------- }
pm    ..      ..     ..      ..     .
Verse
e|------------------------------------|
B|------------------------------------|
G|------------------------------------|
D|------------------------------------|
A|--8-10--8---7-8-7---7-8-7---8-10-8--|
E|-10-10-10---8-8-8---5-5-5---6--6-6--|

e|------------------------------------------------------------------------ }
B|------------------------------------------------------------------------ }
G|------------------------------------------------------------------------ }
D|------------------------------------------------------------------------ }
A|-8------10------8------10------8----10-----7----8----7----8----7---8---- }
E|---1010----1010---1010----1010---10----10----88---88---88---88---8---8-- }
e|------------------------------------------------------------------------ }
B|------------------------------------------------------------------------ }
G|------------------------------------------------------------------------ }
D|------------------------------------------------------------------------ }

A|-7----8----7----8----7---8----8----10----8----10----8---10---|
E|---55---55---55---55---5---5----66----66---66----66---6----6-|
Pre-Chorus

e|---------------------------------|
B|---------------------------------|
G|---------------------------------|
D|---------------------------------|
A|--8-10-------7777888--8888101010-| x2
E|-10-10-------5555555--6666-6-6-6-|

e|----------------------------------|    |--------------|
B|----------------------------------|    |--------------|
G|----------------------------------|    |--------------|
D|-------10-------------------------|    |-101010101010-|
A|--8h10-10-----7777888--8888101010-| x2 |-101010101010-|
E|-10-10--8-----5555555--6666-6-6-6-|    |--8-8-8-8-8-8-|
Chorus

e|----------------------------------------------------- }
B|----------------------------------------------------- }
G|----------------------------------------------------- }
D|-888888888-10101010101010-55555555-333333333--------- }
A|-888888888-10101010101010-55555555-333333333--------- } x2
E|-666666666--8-8-8-8-8-8-8-33333333-111111111--------- }
e|----------------------------------------------------- }
B|----------------------------------------------------- }
G|----------------------------------------------------- }
D|-888888888-10101010101010-121212121212-101010101010-- }
A|-888888888-10101010101010-121212121212-101010101010-- }
E|-666666666--8-8-8-8-8-8-8-101010101010--8-8-8-8-8-8-- }

e|---------------------------------------------|
B|---------------------------------------------|
G|---------------------------------------------|
D|-888888888-10101010101010-55555555-333333333-|
A|-888888888-10101010101010-55555555-333333333-|
E|-666666666--8-8-8-8-8-8-8-33333333-111111111-|
Breakdown   (clean)

e|------------------------------------|
B|------------------------------------|
G|------------------------------------|
D|------------------------------------|
A|--8-10--8---7-8-7---7-8-7---8-10-8--|
E|-10-10-10---8-8-8---5-5-5---6--6-6--|

e|------------------------------------------------------------------|
B|------------------------------------------------------------------|
G|------------------------------------------------------------------|
D|------------------------------------------------------------------|
A|-88----1010----88------77--88--77----77--88--77----88--1010--88---| x2
E|---1010----1010--1010----88--88--88----55--55--55----66----66--66-|
Pre-Chorus

e|---------------------------------|
B|---------------------------------|
G|---------------------------------|
D|---------------------------------|
A|--8-10-------7777888--8888101010-|
E|-10-10-------5555555--6666-6-6-6-|

e|---------------------------------|  |--------------|
B|---------------------------------|  |--------------|
G|---------------------------------|  |--------------|
D|-------10------------------------|  |-101010101010-|
A|--8h10-10----7777888--8888101010-|  |-101010101010-|
E|-10-10--8----5555555--6666-6-6-6-|  |--8-8-8-8-8-8-|
Chorus

e|---------------------------------------------|
B|---------------------------------------------|
G|---------------------------------------------|
D|-888888888-10101010101010-55555555-333333333-|
A|-888888888-10101010101010-55555555-333333333-| x2
E|-666666666--8-8-8-8-8-8-8-33333333-111111111-|


}

}

}

}

}

e|--------------------------------------------------------|
B|--------------------------------------------------------|
G|--------------------------------------------------------|
D|-888888888-10101010101010-121212121212-101010101010---8-|
A|-888888888-10101010101010-121212121212-101010101010---8-|
E|-666666666--8-8-8-8-8-8-8-101010101010--8-8-8-8-8-8---6-|

and if your still alive after all that try playing it backwards
Tap to rate this tab
 
# A B C D E F G H I J K L M N O P Q R S T U V W X Y Z