Song name
# A B C D E F G H I J K L M N O P Q R S T U V W X Y Z

Awolnation - Sail tab

Song: Sail
Artist: Awolnation
Album: Megalithic Symphony 
Tuning: Drop Db

String Intro
|-5-----5-----3-----3-----3-----3-----3-----3-----5-----5-----| 
|-------------------------------------------------------------|
|-------------------------------------------------------------|
|-------------------------------------------------------------| 
|-------------------------------------------------------------|
|-------------2-----2-----2-----2-----2-----2-----2-----2-----|

|-3-----3-----3-----3-----3-----3-----5-----5-----|  
|-------------------------------------------------|
|-------------------------------------------------|
|-------------------------------------------------| 
|-------------------------------------------------|
|-2-----2-----2-----2-----2-----2-----2-----2-----|

|-2-----2-----2-----2-----2-----2-----2-----2-----|
|-------------------------------------------------|
|-------------------------------------------------|
|-------------------------------------------------| 
|-------------------------------------------------|
|-0-----0-----0-----0-----0-----0-----0-----0-----|

|-10----10----10----10----2-----2-----2-----2-----| 
|-------------------------------------------------|
|-------------------------------------------------|
|-------------------------------------------------| 
|-------------------------------------------------|
|-5-----5-----5-----5-----0-----0-----0-----0-----|

Guitar Main Riff
|-------------------------------------------------| 
|-------------------------------------------------|
|-------------------------------------------------|
|-------------------------7-----9-----7-----------| 
|-------------7-7-7-101010------------------10-7--|
|-2-----------------------------------------------|

|-------------------------------------------------| 
|-------------------------------------------------|
|-------------------------------------------------|
|-------------------------7-----9-----7-----------| 
|-------------7-7-7-101010------------------10-7--|
|-2-----------------------------------------------|

|-------------------------------------------------| 
|-------------------------------------------------|
|-------------------------------------------------|
|-------------------------------------5-----------| 
|-------------5-5-5-7-7-7-2-----7-----------7-5---|
|-0-----------------------------------------------|

|-------------------------------------------------| 
|-------------------------------------5-5-5-8~----|
|-------------4-4-4-7-7-7-------------------------|
|-------------------------------------------------| 
|-------------------------------------------------|
|-5-----------------------0-----------------------|

Guitar Main Riff (with Choir) 
|-------------------------------------------------| 
|-------------------------------------------------|
|-------------------------------------------------|
|-------------------------7-----9-----7-----------| 
|-------------7-7-7-101010------------------10-7--|
|-2-----------------------------------------------|
|
|-------------------------------------------------| 
|-------------------------------------------------|
|-12----------9~----------------------------------|
|-x-----------x-----------------------------------| 
|-10----------7~----------------------------------|
|-------------------------------------------------|

|-------------------------------------------------| 
|-------------------------------------------------|
|-------------------------------------------------|
|-------------------------7-----9-----7-----------| 
|-------------7-7-7-101010------------------10-7--|
|-2-----------------------------------------------|
|
|-------------------------------------------------| 
|-------------------------------------------------|
|-12----------9~----------------------------------|
|-x-----------x-----------------------------------| 
|-10----------7~----------------------------------|
|-------------------------------------------------|

|-------------------------------------------------| 
|-------------------------------------------------|
|-------------------------------------------------|
|-------------------------------------5-----------| 
|-------------5-5-5-7-7-7-2-----7-----------7-5---|
|-0-----------------------------------------------|
|
|-------------------------------------------------| 
|-------------------------------------------------|
|-11----------7~----------------------------------|
|-x-----------x-----------------------------------| 
|-9-----------5~----------------------------------|
|-------------------------------------------------|

|-------------------------------------------------| 
|-------------------------------------5-5-5-8~----|
|-------------4-4-4-7-7-7-------------------------|
|-------------------------------------------------| 
|-------------------------------------------------|
|-5-----------------------0-----------------------|
|
|-------------------------------------------------| 
|-------------------------------------------------|
|-------------------------------------------------|
|-5~----------------------------------------------| 
|-x-----------------------5~----------------------|
|-5~----------------------4~----------------------|

That's basically it for the verse and chorus.

Solo at 2:10
|-------------------------------------------------| 
|------------------------------------/12----------|
|-------------12--9------9-----12----------12-----|
|-------------------12----------------------------| 
|-------------------------------------------------|
|-------------------------------------------------|

|-------------------------------------------------| 
|-------------------------------------------------|
|-------------12--9------------9-----12----9------|
|------------------12----12-----------------------| 
|-------------------------------------------------|
|-------------------------------------------------|

|-------------------------------------------------| 
|-------------------------------------10----------|
|-------------12--11-------9-----12----------12---|
|-------------------12----------------------------| 
|-------------------------------------------------|
|-------------------------------------------------|

|-------------------------------------------------| 
|-------------13~\\-------------------------------|
|-------------------------------11----12----14----|
|-------------------------------------------------| 
|-------------------------------------------------|
|-------------------------------------------------|

Piano Part at Bridge:
|-12---10-12---10---------12---10-12---10-12---10-----| 
|-----------------12------------------------------12--|
|-----------------------------------------------------|
|-----------------------------------------------------| 
|-----------------------------------------------------|
|-----------------------------------------------------|

And yer done! Simple yet really awesome song. Even better live.
Tap to rate this tab
 
# A B C D E F G H I J K L M N O P Q R S T U V W X Y Z