Song name
# A B C D E F G H I J K L M N O P Q R S T U V W X Y Z

Awolnation - Sail tab

Tab by: adamzero
Email: afazio101@hotmail.com

I learned-by-ear this tune differently than the tabs I saw posted so I figured, hey, 
maybe it's time to contribute something you lazy sob. (note, my 1st tab, please provide feedback)

(capo on 1st fret, 4/4)
(power chords are open, all others picked muted)

intro
e|3-3-1-1-1-1-1-1-3-3-1-1-1-1-1-1-3-3-3-0-0-0-0-0-0-0-8-8-8-8-0-0-0-0-|
B|3-3-3-3-3-3-3-3-3-3-3-3-3-3-3-3-3-3-3-1-1-1-1-1-1-1-8-8-8-8-1-1-1-1-|
G|--------------------------------------------------------------------|
D|----0-0-0-0-0-0-0-0-0-0-0-0-0-0-0-0---------------------------------|
A|------------------------------------3-3-3-3-3-3-3-3-8-8-8-8-3-3-3-3-|
E|--------------------------------------------------------------------|


verse
e|--------------------------------------------------------------|
B|--------------------------------------------------------------|
G|2----------------0--2--0-------2----------------0--2--0-------|
D|0----0-0-0-3-3-3----------3-0--0----0-0-0-3-3-3----------3-0--|
A|--------------------------------------------------------------|
E|--------------------------------------------------------------|

e|--------------------------------------------------------------|
B|---------------------------------------------------3-3-3-6b---|
G|-------------------------------5----2-2-2-5-5-5---------------|
D|5----------0-0-0----0--3--0----3----------------5-------------|
A|3----3-3-3-------0----------3-------------------3-------------|
E|--------------------------------------------------------------|
Tap to rate this tab
# A B C D E F G H I J K L M N O P Q R S T U V W X Y Z