Guitaretab - guitar tabs
Song name
# A B C D E F G H I J K L M N O P Q R S T U V W X Y Z

Awolnation - Sail tab

this is the intro :D
e------------------------------------------------------------------------|
B------------------------------------------------------------------------|
G------------------------------------------------------------------------|
D----6-6-------------6-6-------------6-6---------------------------------|
A--------6-6-6-6-6-6-----6-6-6-6-6-6-----4-4-4-4-4-4-4-4/9-9-9-9-4-4-4-4-|
E------------------------------------------------------------------------|
[ Tab from: http://www.guitaretab.com/a/awolnation/294361.html ]
This is the main part listen to the song to see where it ends
e-------------------------------|
B-------------------------------|
G---8---------------------------| x2
D---8---------------6-8-6-------|
A---6--6-6-6-9-9-9---------9-6--|
E---6---------------------------|

then
e----------------------------|
B----------------------------|
G---6------------------------|
D---6------------------------|
A---4--4-4-4-6-6-6-----9-6---|
E---4--------------4-7-----9-|
then
e----------------------------------|
B--------------------------4-4-4-7-|
G---11------------------6----------|
D---11--8-8-8-11-11-11--6----------|
A---9-------------------4----------|
E---9-------------------4----------|

this is the last bit im pretty sure
e-----------------------------|
B-----------------------------|
G--8-6-8-6---6-8-6-8-6-8-6----| x8
D----------8---------------8--|
A-----------------------------|
E-----------------------------|

Im pretty sure thats it guys, please rate 5 starts :)
Related for Sail tab
Sail chords by Awolnation