Song name
# A B C D E F G H I J K L M N O P Q R S T U V W X Y Z

Awolnation - Sail tab

 This version is in drop D Tuning. I feel it gives the song "more".
http://www.redbullrecords.com/index.php/artists/detail/artist_-_awolnation/

Intro
e----------------------------------------------------------------------|
B-12-12-12-12-12-12-12-12----12-12-10-10-10-10-10-10-10-10-------------|
G-14-14-12-12-12-12-12-12----14-14-11-11-11-11-11-11-11-11-------------|
B----------------------------------------------------------------------|
A----------------------------------------------------------------------|
E----------------------------------------------------------------------|

e----------------------------------------------------------------------|
B-15-15-15-15-10-10-10-10----------------------------------------------|
G-14-14-14-14-11-11-11-11----------------------------------------------|
B----------------------------------------------------------------------|
A----------------------------------------------------------------------|
E----------------------------------------------------------------------|

Verse/Chorus(w/distortion)
e---------------------------------|
B---------------------------------|
G---------------------------------|
D-2------------------7--9--7------|
A-2---7-7-7-10-10-10---------10-7-|
D-2-------------------------------| x2


e-----------------------------|
B-----------------------------|
G-----------------------------|
D-0-------------------5-------|
A-0---5-5-5-7-7-7-0-5---7-5---|
D-0---------------------------|


e---------------------0-0-0-3------|
B---------------------0-0-0-3------|
G-----4-4-4-7-7-7------------------|
D-5----------------0---------------|
A-5----------------0---------------|
D-5----------------0---------------|

Guitar 2
I play a variation of these chords picking or strumming the beat during the chorus.
Starting on the 5th fret.

Dsus4
Csus4
Dsus2
Csus4

Outro

Play intro over this.
"Piano part"(w/chorus or reverb)
e--12p-10-12p-10----12--12p-10------------------------------------------||
B----------------12-----------------------------------------------------||
G-----------------------------------------------------------------------||
B-----------------------------------------------------------------------||
A-----------------------------------------------------------------------||
E-----------------------------------------------------------------------||

I hope you enjoy this as much as i have learning it. Thanx
Tap to rate this tab
 
# A B C D E F G H I J K L M N O P Q R S T U V W X Y Z