Song name
# A B C D E F G H I J K L M N O P Q R S T U V W X Y Z

Awolnation - Sail tab

-------------------------------------------------------------------------------
 			     SAIL - AWOLNATION
-------------------------------------------------------------------------------
Tabbed by: k8mc
Email:  x_k8_xx@yahoo.co.uk

This is only a rough tab, this could easily be played on a couple of guitars but if you 
wanna just play and sing it does the job.
Feel free to play around with the amount of strings you hit in the verse and the 
hammers/pulls etc.
Enjoy!


Tuning: Standard
* Capo 6 *

INTRO
e|-----------------------------------------------------3-3-3-3---------------|
B|-3-3-1-1-1-1-1-1-3-3-1-1-1-1-1-1-3-3-0-0-0-0-0-0-0-0---------3-3-3-3-------|
G|---------------------------------------------------------------------------|
D|---------------------------------------------------------------------------|
A|-----0-0-0-0-0-0-0-0-0-0-0-0-0-0-0-0-----------------3-3-3-3---------------|
E|-------------------------------------3-3-3-3-3-3-3-3---------3-3-3-3-------|

VERSE/CHORUS
   C                                         C
e|-0-----------------------------------------0-----------------------------------------|
B|-1-----------------------------------------1-----------------------------------------|
G|-0-----------------------------------------0-----------------------------------------|
D|-2-------2-2-2-2-2-2-0-----2-----0---------2-------2-2-2-2-2-2-0-----2-----0---------|
A|-3-------0-0-0-3-3-3-3-----3-----3---3p0---3-------0-0-0-3-3-3-3-----3-----3---3p0---|
E|-0-------0-0-0-0-0-0-----------------------0-------0-0-0-0-0-0-----------------------|

   G                                         Am7 (or C)                                  repeat
e|-3-----------------------------------------0-----------------------------------------|
B|-0-----------------------------------------1-------------------------------------1---|
G|-0-----------------------------------------0-------------0-0-0-------------2-2-2-----|
D|-0-----------------------------------------2-------2-2-2-----------------------------|
A|-2-------2-2-2-0-0-0-2-----2-----3--p0-----------------------------------------------|
E|-3-------3-3-3-3-3-3-0-----3-----------3---------------------------------------------|



2:15 just carry on, OR...
BRIDGE   (the chords aren't vital here)
   C                                         C
e|-0-------------------------------0---------0-----------------------------------------|
B|-1-------1-----------1-----3---------1h3---1-------1-----------------------1---------|
G|-0-----------2p0h2-------------------------0-----------2p0h2---0-----2-----------2---|
D|-2-----------------------------------------2-----------------------------------------|
A|-3-----------------------------------------3-----------------------------------------|
E|-0-----------------------------------------0-----------------------------------------|

   G                                         Am7 (or C)
e|-3-----------------------------------------0-------1---0-----------------------------|
B|-0-------1-----------0-----1-----3---1h3---1-------------3-----------------1---------|
G|-0-----------2p0h2-------------------------0-------------------0-----2---------2p0---|
D|-0-----------------------------------------2-----------------------------------------|
A|-2-----------------------------------------------------------------------------------|
E|-3-----------------------------------------------------------------------------------|



2:32
BREAK	(palm muted)
e|-------------------------------------------------------------------------------------|
B|-------------------------------------------------------------------------------------|
G|-------------------------------------------------------------------------------------|
D|---------------------0-----2-----0-----------------------------0-----2-----0---------|
A|---------0-0-0-3-3-3-----------------3-0-----------0-0-0-3-3-3-----------------3-0---|
E|-------------------------------------------------------------------------------------|
                                                                                         X2
e|-------------------------------------------------------------------------------------|
B|---------------------------------------------------------------------------------1---|
G|---------------------------------------------------------0-0-0-------------2-2-2-----|
D|---------------------------------------------------2-2-2-----------------------------|
A|---------------0-0-0-------------3---0-----------------------------------------------|
E|---------3-3-3-------0-----3-----------3---------------------------------------------|

THEN:

VERSE/CHORUS ||
  or         || x2
BRIDGE       ||

3:36
OUTRO
e|-------------------------------------------------3-3-3-3---------|
B|-1-1-1-1-1-1-3-3-1-1-1-1-1-1-3-3-0-0-0-0-0-0-0-0---------3-3-3-3-|
G|-----------------------------------------------------------------|
D|-----------------------------------------------------------------| x3 (fade)
A|-0-0-0-0-0-0-0-0-0-0-0-0-0-0-0-0-----------------3-3-3-3---------|
E|---------------------------------3-3-3-3-3-3-3-3---------3-3-3-3-|


Comments & ratings welcome :)


************************************
| /   slide up
| \   slide down
| h   hammer-on
| p   pull-off
| ~   vibrato
| +   harmonic
| x   Mute note
| b   Bend
| pb  Pre-bend
| br  Bend release
| pbr Pre-bend release
| brb Bend release bend
************************************
Tap to rate this tab
# A B C D E F G H I J K L M N O P Q R S T U V W X Y Z