Song name
# A B C D E F G H I J K L M N O P Q R S T U V W X Y Z

Awolnation - Sail tab

Tuning: Db-Ab-Db-Gb-Bb-Eb

|--------|------------------------|--------------------------|
|--------|------------------------|--------------------------|
|---2--2-|-0--0--0--0--0--0--2--2-|-0--0--0--0--0--0--2--2---|
|---2--2-|-2--2--2--2--2--2--2--2-|-2--2--2--2--2--2--2--2---|
|--------|------------------------|--------------------------|
|--------|-2--2--2--2--2--2--2--2-|-2--2--2--2--2--2--2--2---|


|---------------------------|-------------------------------|
|---------------------------|-3--3--3--3--------------------|
|---------------------------|-0--0--0--0---2--2--2--2-------|
|---4--4--4--4--4--4--4--4--|--------------0--0--0--0-------|
|---5--5--5--5--5--5--5--5--|-------------------------------|
|---0--0--0--0--0--0--0--0--|-5--5--5--5---0--0--0--0-------|



Play this part 1X


----------------------------------------------------------------------------------



|-------0-0-0---3-3-3---5--7--5-3--0--|--------0-0-0---3-3-3--5--7--5-3--0-----|
|-------------------------------------|----------------------------------------|
|-0--0--0-------0-------0--0--2----2--|--0--0--0-------0------0--0--2----2-----|
|-2--2--2-------2-------2-----2----2--|--2--2--2-------2------2-----2----2-----|
|--------------------------7----------|--------------------------7-------------|
|-2-----------------------------------|--2-------------------------------------|


|-----------------------------2-0---|--------7-7-7--10-10-10--------12-12-12-15--|
|-------3-3-3---5-5-5---0--5------3-|--------------------------------------------|
|-----------------------------------|--0--0--0-------0---------------------------|
|-4--4--4-------4-------4--4--4---4-|--0--0--0-------0--------0--0--0---------0--|
|-5--5--5-------5-------5--5--5---5-|--5----------------------12-12-12-------12--|
|-0---------------------------------|--5----------------------0------------------|


You play this part 8X


------------------------------------------------------------------------------------


|---------3-0-----3--5--7--5--|--------3-0-----------------------|
|--------------0--------------|-------------0--3--5--7--5--------|
|---0--0--0----0--0--0--------|--0--0--0----0--0--0--------------|
|---2--2--2----2--2--2--7--7--|--2--2--2----2--2--2--7--7--------|
|-----------------------7--7--|----------------------7--7--------|
|---2-------------------------|--2-------------------------------|

|----------------------------|--------8-7--3---2--3--5--3----------------|
|--------3-2-----2--3--5--3--|-------------------------------------------|
|-------------3--------------|--0--0--0----0---2--2--2--2----------------|
|--4--4--4----4--4--4--4--4--|--0--0--0----0---0--0--0--0----------------|
|--5--5--5----5--5--5--5--5--|--5----------------------------------------|
|--0-------------------------|--5--------------0-------------------------|


You play this part 1X


------------------------------------------------------------------------------------


|----0---0-------0---0---0--------|----0----0---------0----0----0----------|
|------3---3-0-3---3---3---3-0-3--|------3----3--0-3----3----3----3--0-3---|
|-0--0---0---0---0---0---2---2----|-0--0----0----0----0----0----2----2-----|
|-2--2---2---2---2---2---2---2----|-2--2----2----2----2----2----2----2-----|
|---------------------------------|----------------------------------------|
|-2-------------------------------|-2--------------------------------------|

|-----0----0---------0----0----0-------|----0----0-------------0----0----------|
|-------3----3--0-3----3----3----3-0-3-|------3----3---0-3-------3----3--0-3---|
|--------------------------------------|-0--0----0-----0----2--2----2----2-----|
|--4--4----4----4----4----4----4---4---|-0--0----0-----0----0--0----0----0-----|
|--5--5----5----5----5----5----5---5---|-5-------------------------------------|
|--0-----------------------------------|-5------------------0------------------|


You play this part 2X


------------------------------------------------------------------------------------



|---------3-0-----3--5--7--5--|--------3-0-----------------------|
|--------------0--------------|-------------0--3--5--7--5--------|
|---0--0--0----0--0--0--------|--0--0--0----0--0--0--------------|
|---2--2--2----2--2--2--7--7--|--2--2--2----2--2--2--7--7--------|
|-----------------------7--7--|----------------------7--7--------|
|---2-------------------------|--2-------------------------------|

|----------------------------|--------8-7--3---2--3--5--3----------------|
|--------3-2-----2--3--5--3--|-------------------------------------------|
|-------------3--------------|--0--0--0----0---2--2--2--2----------------|
|--4--4--4----4--4--4--4--4--|--0--0--0----0---0--0--0--0----------------|
|--5--5--5----5--5--5--5--5--|--5----------------------------------------|
|--0-------------------------|--5--------------0-------------------------|

You play this part 3X


------------------------------------------------------------------------------------


|--------|------------------------|--------------------------|
|--------|------------------------|--------------------------|
|---2--2-|-0--0--0--0--0--0--2--2-|-0--0--0--0--0--0--2--2---|
|---2--2-|-2--2--2--2--2--2--2--2-|-2--2--2--2--2--2--2--2---|
|--------|------------------------|--------------------------|
|--------|-2--2--2--2--2--2--2--2-|-2--2--2--2--2--2--2--2---|


|---------------------------|-------------------------------|
|---------------------------|-3--3--3--3--------------------|
|---------------------------|-0--0--0--0---2--2--2--2-------|
|---4--4--4--4--4--4--4--4--|--------------0--0--0--0-------|
|---5--5--5--5--5--5--5--5--|-------------------------------|
|---0--0--0--0--0--0--0--0--|-5--5--5--5---0--0--0--0-------|


You play this part 4X
Tap to rate this tab
 
# A B C D E F G H I J K L M N O P Q R S T U V W X Y Z