Song name
# A B C D E F G H I J K L M N O P Q R S T U V W X Y Z

Awolnation - Sail tab

Okay, so this I was looking for a good acoustic tab for this song and just couldnt 
find one, so I decided to write one.
This is my first tab so please feel free to leave a comment on what I may have tabbed wrong.
I absolutly love this song!

TUNING: C G C F A D

INTRO

|---0-0-------------0-0-------------0-0-------------------------------------|
|---1-1-------------1-1-------------1-1-------------------------------------|
|---2-2-------------2-2-------------2-2-------------------------------------|
|---2-2-2-2-2-2-2-2-2-2-2-2-2-2-2-2-2-2-0--0--0--0--0--0--0--0--------------|
|-------2-2-2-2-2-2-----2-2-2-2-2-2-----12-12-12-12-12-12-12-12-------------|
|-------2-2-2-2-2-2-----2-2-2-2-2-2-----0--0--0--0--0--0--0--0--------------|

|--------------------------0-0-0-3-3-3-5-7-5-3-0---0-0-0-3-3-3-5-7-5-3-0----|
|---------------------------------------------------------------------------|
|---------------------------------------------------------------------------|
|---5-5-5-5-0--0--0--0---2-----------------------2--------------------------|
|---5-5-5-5-12-12-12-12--2-----------------------2--------------------------|
|---5-5-5-5-0--0--0--0---2-----------------------2--------------------------|

|---------------------------------------------------------------------------|
|-----0-0-0-3-3-3-5-7-5-3-0----0-0-0-0-3-3-3---5-5-5-8-8-8------------------|
|---------------------------------------------------------------------------|
|---0------------------------5---------------2---------------2-2-2-2-2-2----|
|---0------------------------5---------------2---------------2-2-2-2-2-2----|
|---0------------------------5---------------2---------------2-2-2-2-2-2----|


VERSE/CHORUS

|-0-0-------------0-0-------------0-0---------------------------------------|
|-1-1-------------1-1-------------1-1---------------------------------------|
|-2-2-------------2-2-------------2-2---------------------------------------|
|-2-2-2-2-2-2-2-2-2-2-2-2-2-2-2-2-2-2-0--0--0--0--0--0--0--0-5-5-5-5-0-0-0-0|
|-----2-2-2-2-2-2-----2-2-2-2-2-2----12-12-12-12-12-12-12-12-5-5-5-5-0-0-0-0|
|-----2-2-2-2-2-2-----2-2-2-2-2-2-----0--0--0--0--0--0--0--0-5-5-5-5-0-0-0-0|

|-0-0-------------0-0-------------0-0---------------------------------------|
|-1-1-------------1-1-------------1-1---------------------------------------|
|-2-2-------------2-2-------------2-2---------------------------------------|
|-2-2-2-2-2-2-2-2-2-2-2-2-2-2-2-2-2-2-0--0--0--0--0--0--0--0-5-5-5-5-0-0-0-0|
|-----2-2-2-2-2-2-----2-2-2-2-2-2----12-12-12-12-12-12-12-12-5-5-5-5-0-0-0-0|
|-----2-2-2-2-2-2-----2-2-2-2-2-2-----0--0--0--0--0--0--0--0-5-5-5-5-0-0-0-0|


|------------------------------0-0-0-0-3-3-3---5-5-5-8-8-8------------------|
|-----0-0-0-3-3-3-5-7-5-3-0-------------------------------------------------|
|---------------------------------------------------------------------------|
|---0------------------------5---------------2------------------------------|
|---0------------------------5---------------2------------------------------|
|---0------------------------5---------------2------------------------------|

And so on.

Please leave suggestions and RATE!! Thank you(:
Tap to rate this tab
# A B C D E F G H I J K L M N O P Q R S T U V W X Y Z