Song name
# A B C D E F G H I J K L M N O P Q R S T U V W X Y Z

Awolnation - Kill Your Heroes tab

Electric 1-Standard
Electric 2-Drop D
Optional Electric 2-Standard

INTRO

ELECTRIC 1
CLEAN

E|----------------------------------------8-------|
B|-8-8-8-10-8--8-8-8-------8-8-8-10-8-8-8--8-10-9-|
G|--9-9-9----9--9-9-9-7-----9-9-9----9-9-9--------|
D|---------------------10-------------------------|
A|------------------------------------------------|
E|------------------------------------------------|

VERSE

ELECTRIC 1
CLEAN

E|---|
B|---|
G|-9-| (trill this for the 1st half of verse then intro)
D|---|
A|---|
E|---|

CHORUS

ELECTRIC 1
CLEAN

E|-8--5-12-|    E|----------|
B|-10-6-13-|    B|----------|
G|-9--5-12-|    G|-14-10-17-|
D|---------| or D|-x--x--x--|
A|---------|    A|-12-8--15-|
E|---------|    E|----------|

ELECTRIC 2
MILD DISTORTION
                                       (optional if you don't wanna drop)
E|--------|                            E|-------|
B|--------|                            B|-------|
G|--------|                            G|-----5-|
D|-7-3-10-| (play along to the beat)   D|-7-3-5-|
A|-7-3-10-|                            A|-7-3-3-|
D|-7-3-10-|                            E|-5-1---|

VERSE

CHORUS

BRIDGE

ELECTRIC 1
CLEAN

E|--------------------------------|
B|--------------------------------|
G|-7//9--9//12--14\\9--7//9--7\\5-|
D|--------------------------------|
A|--------------------------------|
E|--------------------------------|

CHORUS

END with

ELECTRIC 1
Electronic

E|-----------------------------|
B|-181818-171717---------------|
G|---------------161616-171717-|
D|-----------------------------|
A|-----------------------------|
E|-----------------------------|
Tap to rate this tab
# A B C D E F G H I J K L M N O P Q R S T U V W X Y Z