Song name
# A B C D E F G H I J K L M N O P Q R S T U V W X Y Z

Awolnation - Knights Of Shame tab

| This is the first tab i have ever attempted to write, and no it's not the full 
song, it's just some bits and pieces, it was all figured out by ear, and if you 
have any suggestions / amendments to be made please let me know! |

Tuning: Drop D

Intro Part
e|----------------------------------------|
B|----------------------------------------|
G|----------------------------------------|
D|----------------------------------------|
A|------------------------------1-1-3-3---|
D|-3-3-3-1s3--3-3-3-3-3-3-3-3-3-----------|

Intro Solo Thing * However
e|---------------------------------------------13---|
B|-s9-9-6-9-6-9-9-9-9-6-8-9-9-9-6-------------------|
G|--------------------------------------------------|
D|--------------------------------------------------|
A|--------------------------------------------------|
D|--------------------------------------------------| * However many times

Rhythm (played behind solo) This is like a chug (Listen to song for rhythm)
e|------------------------------------|-(Sometimes)-|  
D|-3-3-3--8-8-8-10-10-10-3-3-3--------|---1---------|
A|-3-3-3--8-8-8-10-10-10-3-3-3--------|---1---------|
D|-3-3-3--8-8-8-10-10-10-3-3-3--------|---1---------| * However many times

                 THEN
e|---------------|  |---------------|
B|---------------|  |---------------|
G|---------------|  |---------------|   
D|-3-3-3-4-3-3---|  |--3-3-3-6-3-3--|
A|-3-3-3-4-3-3---|  |--3-3-3-6-3-3--|
D|-3-3-3-4-3-3---|  |--3-3-3-6-3-3--|

(intro to 2:55)
e|--------------------------------------------------|
B|--6-5---5--5--5---6-5---5-------------------------|
G|------7--5--5--5------7---5-----------------------|
D|--------------------------------------------------|
A|--------------------------------------------------|
E|--------------------------------------------------|

e|--------------------------------------------------|
B|--6-5---5--5--5---10-8-6-5------------------------|
G|------7--5--5--5----------5-----------------------|
D|--------------------------------------------------|
A|--------------------------------------------------|
E|--------------------------------------------------|

(Play while singing)
e|--------------------------------------------------|
B|--s10-8-5-----------5---s10-8--5------------------|
G|---------7-5-7-5757---5----------7-5-7^8-5--------|
D|--------------------------------------------------|
A|--------------------------------------------------|
E|--------------------------------------------------| *2

(Then this again)
e|--------------------------------------------------|
B|--6-5---5--5--5---6-5---5-------------------------|
G|------7--5--5--5------7---5-----------------------|
D|--------------------------------------------------|
A|--------------------------------------------------|
E|--------------------------------------------------|

e|--------------------------------------------------|
B|--6-5---5--5--5---10-8-6-5------------------------|
G|------7--5--5--5----------5-----------------------|
D|--------------------------------------------------|
A|--------------------------------------------------|
E|--------------------------------------------------|

Weird Breakdown

(Play while singing)
e|--------------------------------------------------|
B|--s10-8-5-----------5---s10-8--5------------------|
G|---------7-5-7-5757---5----------7-5-7^8-5--------|
D|--------------------------------------------------|
A|--------------------------------------------------|
E|--------------------------------------------------| *2

Wierd breakdown

THESE THINGS CALLED TNT, THEY CALL ME TNT =D

e|-----------------------------5-5-7-7--------------|
B|-5-5-5-5-5-5-5-44444-5-5-5-5----------------------|
G|--------------------------------------------------|
D|--------------------------------------------------|
A|--------------------------------------------------|
E|--------------------------------------------------| * However many times

7:50

e|--------------------------------------------------|
B|--------------------------------------------------|
G|--------------------------------------------------|
D|-2-2-2-2-2-2-2-2-9-9-9-9-7-7-7-7------------------|
A|-2-2-2-2-2-2-2-2-9-9-9-9-7-7-7-7------------------|
E|-2-2-2-2-2-2-2-2-9-9-9-9-7-7-7-7------------------| * However Many Times

8:47 - You slide most of these
e|--------------------------------------------------|
B|-9-10-7-10-9-10-7-5-9-10-7-10-9-10-3-5------------|
G|--------------------------------------------------|
D|--------------------------------------------------|
A|--------------------------------------------------|
E|--------------------------------------------------|

Once again these are just the parts i figured out, but this should be enough for 
you to play along to the whole song, whether it's rythym, or the singing parts, 
and some of the solo-type parts! Thanks! 

-Song belongs to respect owners-
-This is not an official tab   -
Tap to rate this tab
 
# A B C D E F G H I J K L M N O P Q R S T U V W X Y Z