Song name
# A B C D E F G H I J K L M N O P Q R S T U V W X Y Z

Axe - Rock N Roll Party In The Street tab

THIS IS THE ONLY TAB OF THIS SONG THAT ACTUALLY SHOWS THE NOTES THAT THE KEYBOARD PLAYS.

 OF COARSE, IT'S NOT EXACT, AS I FIGURED IT OUT MYSELF, BUT ONCE YOU GOT IT DOWN

NO ONE WILL KNOW THE DIFFERANCE.

BY THE WAY THIS IS IN NEAR PERFECT TIMING, JUST LISTEN TO THE SONG TO FIND HOW FAST TO PLAY IT.

                                                  INTRO

KEYBOARD   e|-------9-10---9-10-------9-10---9-10---|----8-7---8-7-------8-7---8-7-|
ARRANGED   B|-0-7-7-------------0-7-7-------------0-|5-5-----------0-5-5-----------|
FOR GUITAR g|---------------------------------------|------------------------------|
           D|---------------------------------------|------------------------------|
           A|---------------------------------------|------------------------------|
           E|---------------------------------------|------------------------------|



KEYBOARD   e|------4-------5-------7-8---8-7---|
ARRANGED   B|0-2-2---2-3-3---0-5-5-----------5-|
FOR GUITAR G|----------------------------------|
           D|----------------------------------|
           A|----------------------------------|
           E|----------------------------------|



KEYBOARD   e|-------9-10---9-10-------9-10---9-10---|----8-7---8-7-------8-7---8-7-|
ARRANGED   B|-0-7-7-------------0-7-7-------------0-|5-5-----------0-5-5-----------|
FOR GUITAR G|---------------------------------------|------------------------------|
           D|---------------------------------------|------------------------------|
           A|---------------------------------------|------------------------------|
           E|---------------------------------------|------------------------------|
            |                                       |                              |
GUITAR     e|---------------------------------------|------------------------------|
ARRANGED   B|---------------------------------------|------------------------------|
FOR GUITAR G|---9-9---------------9-9---------------|7-7-------------7-7-----------|
           D|---9-9---------------9-9---------------|7-7-------------7-7-----------|
           A|---7-7---------------7-7---------------|5-5-------------5-5-----------|
           E|---------------------------------------|------------------------------|



KEYBOARD   e|------4-------5-------7-8---8-7---|
ARRANGED   B|0-2-2---2-3-3---0-5-5-----------5-|
FOR GUITAR G|----------------------------------|
           D|----------------------------------|
           A|----------------------------------|
           E|----------------------------------|
            |                                  |
GUITAR     e|----------------------------------|
ARRANGED   B|----------------------------------|
FOR GUITAR G|--4-4-----5-5-----3-3---12--12-11-|
           D|--4-4-----5-5-----3-3---12--12-11-|
           A|--2-2-----3-3-----5-5---10--10-9--|
           E|----------------------------------|

                                             VERSE

KEYBOARD   e|-----------------------------------------------------------------|
ARRANGED   B|--UNKNOWN--(SIMILAR TO INTRO BUT WITH SEVERAL DIFFERANCES THAT I |
FOR GUITAR G|HAVEN'T FIGURED OUT YET, YOU COULD JUST PLAY INTRO )-------------|
           D|-----------------------------------------------------------------|
           A|-----------------------------------------------------------------|
           E|-----------------------------------------------------------------|
            |                                                                 |
GUITAR     e|-----------------------------------------------------------------|
ARRANGED   B|-----------------------------------------------------------------|
FOR GUITAR G|-----------------------------------------------------------------|REPEAT AS MANY TIMES
           D|-----------------------------------------------------------------|AS NEEDED
           A|0-0-0-0-0-0-0-0-0-0-0-0-0-0-0-0-0-5-5-5-5-5-5-5-5-5-5-5-5-5-5-5-5|
           E|2-2-2-2-2-2-2-2-2-2-2-2-2-2-2-2-2-3-3-3-3-3-3-3-3-3-3-3-3-3-3-3-3|


	WELL THAT'S ALL KNOW. IF I LEARN MORE I'LL POST IT. PEACE.

		TABBED BY SONNY MUNSON

THIS IS THE ONLY TAB OF THIS SONG THAT ACTUALLY SHOWS THE NOTES THAT THE KEYBOARD PLAYS.

 OF COARSE, IT'S NOT EXACT, AS I FIGURED IT OUT MYSELF, BUT ONCE YOU GOT IT DOWN

NO ONE WILL KNOW THE DIFFERANCE.

BY THE WAY THIS IS IN NEAR PERFECT TIMING, JUST LISTEN TO THE SONG TO FIND HOW FAST TO PLAY IT.

                                                  INTRO

KEYBOARD   e|-------9-10---9-10-------9-10---9-10---|----8-7---8-7-------8-7---8-7-|
ARRANGED   B|-0-7-7-------------0-7-7-------------0-|5-5-----------0-5-5-----------|
FOR GUITAR g|---------------------------------------|------------------------------|
           D|---------------------------------------|------------------------------|
           A|---------------------------------------|------------------------------|
           E|---------------------------------------|------------------------------|



KEYBOARD   e|------4-------5-------7-8---8-7---|
ARRANGED   B|0-2-2---2-3-3---0-5-5-----------5-|
FOR GUITAR G|----------------------------------|
           D|----------------------------------|
           A|----------------------------------|
           E|----------------------------------|



KEYBOARD   e|-------9-10---9-10-------9-10---9-10---|----8-7---8-7-------8-7---8-7-|
ARRANGED   B|-0-7-7-------------0-7-7-------------0-|5-5-----------0-5-5-----------|
FOR GUITAR G|---------------------------------------|------------------------------|
           D|---------------------------------------|------------------------------|
           A|---------------------------------------|------------------------------|
           E|---------------------------------------|------------------------------|
            |                                       |                              |
GUITAR     e|---------------------------------------|------------------------------|
ARRANGED   B|---------------------------------------|------------------------------|
FOR GUITAR G|---9-9---------------9-9---------------|7-7-------------7-7-----------|
           D|---9-9---------------9-9---------------|7-7-------------7-7-----------|
           A|---7-7---------------7-7---------------|5-5-------------5-5-----------|
           E|---------------------------------------|------------------------------|



KEYBOARD   e|------4-------5-------7-8---8-7---|
ARRANGED   B|0-2-2---2-3-3---0-5-5-----------5-|
FOR GUITAR G|----------------------------------|
           D|----------------------------------|
           A|----------------------------------|
           E|----------------------------------|
            |                                  |
GUITAR     e|----------------------------------|
ARRANGED   B|----------------------------------|
FOR GUITAR G|--4-4-----5-5-----3-3---12--12-11-|
           D|--4-4-----5-5-----3-3---12--12-11-|
           A|--2-2-----3-3-----5-5---10--10-9--|
           E|----------------------------------|

                                             VERSE

KEYBOARD   e|-----------------------------------------------------------------|
ARRANGED   B|--UNKNOWN--(SIMILAR TO INTRO BUT WITH SEVERAL DIFFERANCES THAT I |
FOR GUITAR G|HAVEN'T FIGURED OUT YET, JUST PLAY INTRO HERE IF YOU WANT)-------|
           D|-----------------------------------------------------------------|
           A|-----------------------------------------------------------------|
           E|-----------------------------------------------------------------|
            |                                                                 |
GUITAR     e|-----------------------------------------------------------------|
ARRANGED   B|-----------------------------------------------------------------|
FOR GUITAR G|-----------------------------------------------------------------|REPEAT AS MANY TIMES
           D|-----------------------------------------------------------------|AS NEEDED
           A|0-0-0-0-0-0-0-0-0-0-0-0-0-0-0-0-0-5-5-5-5-5-5-5-5-5-5-5-5-5-5-5-5|
           E|2-2-2-2-2-2-2-2-2-2-2-2-2-2-2-2-2-3-3-3-3-3-3-3-3-3-3-3-3-3-3-3-3|
           PM. . . . . . . . . . . . . . . . . . . . . . . . . . . . . . . . .

	WELL THAT'S ALL KNOW. IF I LEARN MORE I'LL POST IT. PEACE.

		TABBED BY SONNY MUNSON
Tap to rate this tab
# A B C D E F G H I J K L M N O P Q R S T U V W X Y Z